Oops, an error
Loading. Please wait.

Good For Me tab

888 views 6 this week
no commentswrite comment
1 2 3 4 5
1 last vote to show rating
add to favorites
×
Save as Personal and add changes to this tab that will be seen only by you. Learn more ›
×
You can save this tab as Personal to edit and correct it or add notes. All changes will be seen only by you. Learn more »
launch autoscroll
font size
0
reset
how to read this tab
guitar tuner
edit
Autoscroll
slow
fast
+/-
esc
set tempo
stop
-------------------------------------------------------------------------------
                             Jon Foreman - Good For Me
-------------------------------------------------------------------------------
Tuning: Drop D

Intro/Verse 1: This doesn't sound perfect, I think there's another guitar or bass 
playing, if you have no bassist try
play the note above the tab while playing the riff. (have a play around, see if 
you can figure it out)
     D
e|-\-------------------------------------------------------------------------|
B|-\-------------------------------------------------------------------------|
G|-\-------------------------------------------------------------------------|
D|-\-------0-3-5----5/7----0-3-5----3b(1/2 semitone)----3-5-5/7~--7-7-5-3----|
A|-\--5-------------------------------------------------------------------5-3|
D|-\--0----------------------------------------------------------------------|
      Bb
e|---------------------------------------------------------------------------|
B|---------------------------------------------------------------------------|
G|---------------------------------------------------------------------------|
D|---------0-3-5----5b(1/2 semitone)----0-3-5-3~----0-3-5-5/7-7-5--3---------|
A|----1----------------------------------------------------------------------|
D|---------------------------------------------------------------------------|
      D
e|---------------------------------------------------------------------------|
B|---------------------------------------------------------------------------|
G|---------------------------------------------------------------------------|
D|---------0-3-5----5/7----0-3-5----3b(1/2 semitone)----3-5-5/7~--7-7-5-3----|
A|----5-------------------------------------------------------------------5-3|
D|----0----------------------------------------------------------------------|
     Bb
e|---------------------------------------------------------------------------|
B|---------------------------------------------------------------------------|
G|---------------------------------------------------------------------------|
D|---------0-3-5----5b(1/2 semitone)----0-3-5-3~---0-3-5-5/7-6b-6b-6b-6-3-5-0|
A|----1----------------------------------------------------------------------|
D|---------------------------------------------------------------------------|

Chorus:
                D
The fluorescent lights
                           Bb
They look as bright as the real sun
                   C
When they shine at night
                 Gm      A
But it's just an illusion
                 D
I wonder if it's good for me
         Bb
Does it bind or set me free?
        C
Does it keep me on my knees?
                 Gm
I wonder if it's good for me
A
Good for me

Verse 2:

Same as first verse/intro


Chorus:
                   D
I got snakes for hands
                   Bb
I got a lamb for slaughter
                     C
We've been drinking sand
                         Gm   A
That we thought was the water
                   D
I wonder if it's good for me
              Bb
Are you the cure or the disease?
         C
Are you freedom or the freeze?
                    Gm
I wonder if you're good for me
A          A7
Good for me

Interlude:
Dm A7 Dm A7 Dm A7
Bb A

Chorus:
A             D
I was upside down
                              Bb
I thought the floor was the ceiling
                       C
And from my backwards view
                          Gm    A
She looked just like the real thing
                     D
I wonder if you're good for me
             Bb
Are you forgiveness or the chain?
           C
Are you liberty or chains?
                     Gm
I wonder if you're good for me
A
Good for me

End

Chords used
   Dm   Bb   C   A   Gm  A7
e|-1----1----3---0---3---0---------------------------------------------------|
B|-3----3----5---2---3---2---------------------------------------------------|
G|-2----3----5---2---3---0---------------------------------------------------|
D|-0----3----5---2---5---2---------------------------------------------------|
A|-0----1----3---0---5---0---------------------------------------------------|
D|-0----x----x---x---x---x---------------------------------------------------|


************************************

| /   slide up
| \   slide down
| h   hammer-on
| p   pull-off
| ~   vibrato
| +   harmonic
| x   Mute note
| b   Bend
| pb  Pre-bend
| br  Bend release
| pbr Pre-bend release
| brb Bend release bend

************************************

            
            
Suggest correction
Creating personal tab
Creating personal tab
You can edit any tab online and save it as your Personal.

You can edit, replace or remove any tab part or add personal notes – all changes will be seen only by you.

Personal tabs can be accessed anytime from any device, even offline.
Learn more »
Give kudos to tab author, rate the tab!
1 2 3 4 5
comments
print report bad tab
guest
You may want to rate the tab now too:
select rating
Wanna post a correction for this tab? Suggest correction