Oops, an error
Loading. Please wait.

Learning How To Die tab

version 1
version 1

Whole song

Interactive

16,912 views 9 this week
2 commentsread comments
1 2 3 4 5
x 13
add to favorites
×
Save as Personal and add changes to this tab that will be seen only by you. Learn more ›
×
You can save this tab as Personal to edit and correct it or add notes. All changes will be seen only by you. Learn more »
launch autoscroll
font size
0
reset
how to read this tab
guitar tuner
edit
Autoscroll
slow
fast
+/-
esc
set tempo
stop
Author
Difficulty
"Learning How to Die" by Jon Foreman
From the EP "Winter"
Tab by Jose Montenegro

^= strum down
v= strum up
X= mute note
h= hammer-on

* Ch0rd5:
      G  Cadd9  A7sus  Dsus  D   E5  E5/C  E5/A  Fadd9  C
  e|--3---3-----3------3-----2---0---0-----0-----3------0--|
  B|--3---3-----3------3-----3---0---0-----0-----1------1--|
  G|--0---0-----0------2-----2---4---4-----4-----2------0--|
  D|--0---x-----2------0-----0---2---2-----2-----3------2--|
  A|--x---3-----0--------------------3-----0------------3--|
  E|--3----------------------------------------------------|

Intro (x2):
          G           Cadd9          A7sus         Dsus D   Dsus
         ^  v ^ v       ^            ^  v ^ v        ^  v v ^  
  e|-----3--3-3-3--|----3------|-----3--3-3-3--|-----3--2-2-2h3--|
  B|-----3--3-3-3--|----3------|-----3--3-3-3--|-----3--3-3-3----|
  G|-----0--0-0-0--|----0------|-----0--0-0-0--|-----2--2-2-2----|
  D|-----0--0-0-0--|-----------|-----2--2-2-2--|--0--------------|
  A|---------------|--3---3-2--|--0------------|-----------------|
  E|--3------------|-----------|---------------|-----------------|

Verse:
          G             Cadd9            A7sus         Dsus D   Dsus
         ^  v ^ v        ^  v ^ v        ^  v ^ v        ^  v v ^  
  e|-----3--3-3-3--|-----3--3-3-3--|-----3--3-3-3--|-----3--2-2-2h3--|
  B|-----3--3-3-3--|-----3--3-3-3--|-----3--3-3-3--|-----3--3-3-3----|
  G|-----0--0-0-0--|-----0--0-0-0--|-----0--0-0-0--|-----2--2-2-2----|
  D|-----0--0-0-0--|-----x--x-x-x--|-----2--2-2-2--|--0--------------|
  A|---------------|--3------------|--0------------|-----------------|
  E|--3------------|---------------|---------------|-----------------|
      "I'm gonna     miss you...       I'm gonna    miss you when..." 
Verse I:
  I'm gonna miss you, I'm gonna miss you when you're gone…
  [Repeat Intro]
  She says I love you, I'm gonna miss hearing your songs…
  [Repeat Intro]

Pre-Chorus:

         ^  v ^ v        ^  v ^ v        ^  v ^ v        ^  v ^ v
  e|-----0--0-0-0--|-----0--0-0-0--|-----0--0-0-0--|-----0--0-0-0--|
  B|-----0--0-0-0--|-----0--0-0-0--|-----0--0-0-0--|-----0--0-0-0--|
  G|-----4--4-4-4--|-----4--4-4-4--|-----4--4-4-4--|-----4--4-4-4--|
  D|-----2--2-2-2--|-----2--2-2-2--|-----2--2-2-2--|-----2--2-2-2--|
  A|---------------|--3------------|--0------------|--3------------|
  E|--0------------|---------------|---------------|---------------|
     "Please..."    "talk…"        "end..."          "talk..."    

         ^  v ^ v        ^  v ^ v        ^  v ^ v        ^  v ^ v
  e|-----0--0-0-0--|-----0--0-0-0--|-----0--0-0-0--|-----3--3-3-3--|
  B|-----0--0-0-0--|-----0--0-0-0--|-----0--0-0-0--|-----3--3-3-3--|
  G|-----4--4-4-4--|-----4--4-4-4--|-----4--4-4-4--|-----2--2-2-2--|
  D|--2--2--2-2-2--|-----2--2-2-2--|-----2--2-2-2--|--0------------|
  A|---------------|--3------------|--0------------|---------------|
  E|---------------|---------------|---------------|---------------|
     "Every..."      "thing…"        "away..."       "friend..."    

           B5/E          B5/C           B5/A
   I said "Please, don't talk about the end 
         B5/C           B5/E         B5/C
   Don't talk about how every living thing goes away" 
   B5/A       Dsus    
    She said "Friend… 

Chorus:
          G               A7sus          Cadd9           Dsus 
          ^  v ^ v        ^  v ^ v        ^  v ^ v        ^  v ^ v
  e|------3--3-3-3--|-----3--3-3-3--|-----3--3-3-3--|-----3--3-3-3--|
  B|------3--3-3-3--|-----3--3-3-3--|-----3--3-3-3--|-----3--3-3-3--|
  G|------0--0-0-0--|-----0--0-0-0--|-----0--0-0-0--|-----2--2-2-2--|
  D|----------------|-----2--2-2-2--|-----x--x-x-x--|--0------------|
  A|----------------|--0------------|--3------------|---------------|
  E|---3------------|---------------|---------------|---------------|
     "Along..."       "learning..."   "take..."       "bend..."

          G              A7sus              Cadd9          
          ^  v ^ v       ^  v ^ v        ^  v ^ v  ^  ^ v 
  e|-----3--3-3-3--|-----3--3-3-3--|-----3--3-3-3--3--3-3--|
  B|-----3--3-3-3--|-----3--3-3-3--|-----3--3-3-3--3--3-3--|
  G|-----0--0-0-0--|-----0--0-0-0--|-----0--0-0-0--0--0-0--|
  D|---------------|-----2--2-2-2--|-----x--x-x-x--x--x-x--|
  A|---------------|--0------------|--3--------------------|
  E|--3------------|---------------|-----------------------|
   "break..."        "live..."       "cry..."
 
            Dsus               Fadd9             C
         ^  v ^ v  ^  ^        ^  v ^ v        ^  v ^ v
  e|-----3--3-3-3--3--3--|-----3--3-3-3--|-----0--0-0-0--|
  B|-----3--3-3-3--3--3--|-----1--1-1-1--|-----1--1-1-1--|
  G|-----2--2-2-2--2--2--|-----2--2-2-2--|-----0--0-0-0--|
  D|--0------------------|--3------------|-----2--2-2-2--|
  A|---------------------|---------------|--3------------|
  E|---------------------|---------------|---------------|
     "I've..."                      "I've...learning..."

Now Repeat Intro x2
           Verse
           Pre-chorus
           Chorus

Outro (just like intro):
   G - Cadd9 - A7sus-D
   Die…
     G - C2 - A7sus
   Die…
   Dsus
   I've been learning how to die
   Fadd9      C               G
    I've been learning how to…

            
            
Suggest correction
Creating personal tab
Creating personal tab
You can edit any tab online and save it as your Personal.

You can edit, replace or remove any tab part or add personal notes – all changes will be seen only by you.

Personal tabs can be accessed anytime from any device, even offline.
Learn more »
comments
print report bad tab
2 comments total.
+1 reply
radicalchad 10 Mar 31, 2009 07:58 AM

this is an awesome song! thanx for tabbing this. i really needed it gob bless!!

-1 reply
jamuel24 260 Jan 26, 2010 09:44 AM

Well done! Just so you know, on the intro riff, on the b string, he pulls off to 1, so it goes from (GBD) 0-3-3 to 0-1-3.

guest
You may want to rate the tab now too:
select rating
Wanna post a correction for this tab? Suggest correction