Oops, an error
Loading. Please wait.

First Time tab

version 1
version 1

Whole song

1,249 views 1 this week
no commentswrite comment
1 2 3 4 5
3 more votes to show rating
add to favorites
×
Save as Personal and add changes to this tab that will be seen only by you. Learn more ›
×
You can save this tab as Personal to edit and correct it or add notes. All changes will be seen only by you. Learn more »
launch autoscroll
font size
0
reset
how to read this tab
guitar tuner
edit
Autoscroll
slow
fast
+/-
esc
set tempo
stop
Author
Difficulty
Intro:

e-------------------------------|
B-------------------------------|
G-----------------------------4-|(hold briefly)--
D-6-6-44-6-6--(x3) --6-6-44-6---|
A-------------------------------|
E-------------------------------|

e----------------------------------|
B----------------------------------|
G-----------------------------4----|
D-6-6-44-6-6--(x3) --6-6-44-6---6-4|
A----------------------------------|
E----------------------------------|



Verse 1: (play whole riff for each line or play chords)

C#m    B           A
Such a thrill of a lifetime
C#m    B           A
What a night for a good time
C#m     B          A
Let the beat be a lifeline
C#m     B             A
Make it feel like the first time


Chorus: (no riff)

[[C#m          B              A
Ooh ooh oh oh, ooh ooh oh oh oh
A
Make it feel like the first time]] x 2

C#m           B       
Come on let it set you free
         A
Right here, right now, where you're supposed to be
C#m            B             A
Ooh ooh oh oh, ooh ooh oh oh oh
A
Make it feel like the first time


Bridge 1:

e----------------------------------|
B----------------------------------|
G-----------------------4----------|
D-6-6-44-6-6---6-6-44-6---6-4------| x4
A----------------------------------|
E----------------------------------|


Verse 2: Chords (or riff if desired)


Chorus


Bridge 2: (slight change in riff)

e--------------------------------------------|
B--------------------------------------------|
G-----------------------4--4-66666-4-4-666-4-|
D-6-6-44-6-6---6-6-44-6----------------------|
A--------------------------------------------|
E--------------------------------------------|

Verse 3: Same chords, one strum only

Chorus

            
            
Suggest correction
Creating personal tab
Creating personal tab
You can edit any tab online and save it as your Personal.

You can edit, replace or remove any tab part or add personal notes – all changes will be seen only by you.

Personal tabs can be accessed anytime from any device, even offline.
Learn more »
Give kudos to tab author, rate the tab!
1 2 3 4 5
comments
print report bad tab
guest
You may want to rate the tab now too:
select rating
Wanna post a correction for this tab? Suggest correction