Oops, an error
Loading. Please wait.

Fly With Me tab

version 2
version 2

Whole song

Interactive

20,047 views 3 this week
3 commentsread comments
1 2 3 4 5
x 10
add to favorites
×
Save as Personal and add changes to this tab that will be seen only by you. Learn more ›
×
You can save this tab as Personal to edit and correct it or add notes. All changes will be seen only by you. Learn more »
launch autoscroll
font size
0
reset
how to read this tab
guitar tuner
edit
Autoscroll
slow
fast
+/-
esc
set tempo
stop
Author
Hey everyone! It's Jon4sLuv3r here with my tenth and most complicated tab!
this is obviously a tab of one of the Jonas Brother's new songs, Fly With Me, 
off of Night of the Museum 2 AND Lines, Vines, and Trying times.
As you will see, there are MANY MANY notes telling you how to play each chord;
to pluck it, strum it, when to strum it, how many times to strum it and even the strumming pattern!
This tab took MANY hours and i REALLY hope it is 5 ***** stars! I've worked so hard on it and 
i'm so sure that it's 100% right! 
and here is credit to ultimate-guitar user: teamjonas
from whom i stole intro 2 and verse 1 from and some of the first half of the bridge ;) you rock!
VIDEO HERE!!!! : http://www.youtube.com/watch?v=ZyAqxgihCaA
it's an entry for the myflywithmecover jb contest


Intro part 1:
e|----------------------|
B|----------------------|
G|--5-5-7-7-9-9-7-7-----|
D|----------------------| x2
A|--3-3-5-5-7-7-5-5-----|
E|----------------------|

(pluck these)
you could continue to play intro 1  15 more times until chorus or you can
play intro 2 fore the second part of the intro and verses.


Intro part 2 and verse:
e|--------------------|       play three times.
B|--------------------|       the first time is intro part 2
G|-5~-----------------|       the last 2 times are verse.
D|-5~--5~--3~--7~--5~-| x3    you start singing then.
A|-3~--5~--3~--7~--5~-|
E|-----3~--1~--5~--3~-|

(strum each once)

Chorus:
e|---------------------|     lyrics: if it's you and me forever. if it's
B|---------------------|      you and me right now i'd be alright. be
G|--5------------------|      alriiigghhtt. chasing stars to lose our
D|--5---5---3---7---5--| x2   shadow, peter pan and wendy turned out finne
A|--3---5---3---7---5--|      so won't you flyyyyyyy with mee.
E|------3---1---5---3--|

play the first 3 power chords 16 times if you strum fast. 8 times if you strum half the pace. 
and 1 time if you are super lazy. 
for the last two chords, play them half the number of times you played the first three. 
the strum i use for the last two together is: d d dudd d dud.


Post-Chorus:
e|--------------------|    lyrics:  ohhh yeaaa. gotta fly with...me.now..
B|--------------------|
G|-5------------------|
D|-5---5---3---7---5--| 
A|-3---5---3---7---5--|
E|-----3---1---5---3--|

strum each once like in intro 2.


Verse:
e|------------------------------------------------------------------------------------|
B|------------------------------------------------------------------------------------|
G|-5-5-5-5-5-5-5-5--------------------------------------------------------------------|
D|-5-5-5-5-5-5-5-5--5-5-5-5-5-5-5-5--3-3-3-3-3-3-3-3--7-7-7-7-5-5-5-5--3~--5~--3~--5~-| 
A|-3-3-3-3-3-3-3-3--5-5-5-5-5-5-5-5--3-3-3-3-3-3-3-3--7-7-7-7-5-5-5-5--3~--5~--3~--5~-|
E|------------------3-3-3-3-3-3-3-3--1-1-1-1-1-1-1-1--5-5-5-5-3-3-3-3--1~--3~--1~--3~-|
   d d d d d d d du d d d d d d d du dddddddddddddddd  d d dud d d dud 

the "d"'s and "u"'s are the strumming pattern
d = down stroke
u = up stroke
you could play each power chord once or twice at a slow pace
the last four power chords are all down strokes.



Chorus:
e|---------------------|
B|---------------------|
G|--5------------------|
D|--5---5---3---7---5--| x2
A|--3---5---3---7---5--|
E|------3---1---5---3--|

play the first 3 power chords 16 times if you strum fast. 8 times if you strum half the pace. 
and 1 time if you are super lazy. 
for the last two chords, play them half the number of times you played the first three. 
the strum i use for the last two together is: d d dudd d dud.

Bridge:
e|------------------------------| lyrics: maybe you were just afraid, 
B-------------------------------| knowing you were miles away, from the
G|-5~-------------------------4-| place where you needed to be, and that's
D|-5~--5~--3~--7~--5~--7~--5~---| right here with me!
A|-3~--5~--3~--7~--5~--7~--5~---|
E|-----3~--1~--5~--3~--5~--3~---|

(strum each once)

e|------------------------------------------------------|
B|------------------------------------------------------|  be sure to play
G|-----5--4-5------5--4-5-------5--4-5------5--4~~~-----|  only the A,D,and G
D|---5-----------5------------5------------5---5~~~-----|  strings for the
A|-3-------------------------------------------5~~~-----|  last chord
E|-------------3------------1------------5--------------|
it's you and me forever. you and me right now that'd be all riighht

Chorus:
e|-------------------|  lyrics: we're chasing stars to loose our shadows
B|-------------------|   peter pan and wendy turned out finnne. so won't
G|-7-----------------|   you flyyyyyyyyy with me..
D|-7---7---5---9---7-| 
A|-5---7---5---9---7-|  
E|-----5---3---7---5-|

play the first 3 power chords 16 times if you strum fast. 8 times if you strum half the pace. 
and 1 time if you are super lazy. 
for the last two chords, play them half the number of times you played the first three. 
the strum i use for the last two together is: d d dudd d dud.  


Solo:
e|--------------------------------------------------------7---------------|
B|---------------------7--10~--7-----------------------7-----7------------|
G|--7~~----7-----7--9-------------9~~------7-----7--9-----------9--7------|
D|------7-----7-------------------------7-----7-----------------------9---|
A|------------------------------------------------------------------------|
E|------------------------------------------------------------------------|

e|-----------------------------------14/12~~~~~---------------------------|
B|--------------------------------7---------------------------------------|
G|--------------------------7--9------------------------------------------|
D|--9--7--------------7--9------------------------------------------------|
A|--------8/9~~----9------------------------------------------------------|
E|------------------------------------------------------------------------|
          ^^^
     right there, you could play: A|---9-9----  
instead of:  A|---8/9---    either way sounds like the song


Chorus 1:
e|---------x-------------|  resume playing after xxxxx right when nick 
B|---------x-------------|   finishes saying riiiiiiiggggghhhtttT for       
G|-7-------x-------------|  the first time (start playing at capital T) 
D|-7---7---x---5---9---7-| 
A|-5---7---x---5---9---7-|    (strum for chord 355xxx: D dud
E|-----5---x---3---7---5-|     D = strum down really strong)
      ^^^
on this chord, strum regular then down 
strong twice before the xxxxx. 
strum is regular like other choruses for the rest of chords
remember: last two chords together are: d d dudd d dud


Chorus 2:
e|-------------|  lyrics: chasing stars to lose our shadows. peter pan and
B|-------------|      wendy turned out finne...
G|--7----------|
D|--7---7---5--|
A|--5---7---5--|
E|------5---3--|

play the power chords 16 times if you strum fast. 8 times if you strum half the 
pace. and 1 time if you are super lazy. 


         e|---------------------------------------|
         B|---------------------------------------|
         G|-------6666--7777-6666---------5~------|  (for the chords that 
         D|--9999-7777--7777-7777--5~~----7~------|    have 4 in a row, 
         A|--9999-7777--5555-7777--5~~----7~------|    strum: d d dud
         E|--7777-5555-------5555--3~~----5~------|    for each one)
so won't you fllllllyyy fllyyyyy   flllyyyyyyyyyyyy

wiiithhh 

outro:
e|-------------------------|
B|-------------------------|
G|--7-7-9-9-11-11-9-9--7---|
D|---------------------5---| 
A|--5-5-7-7-9--9--7-7--5---|
E|-------------------------|
   me. 

(pluck all but strum last power chord)

THE END!!!!

Thank you soo much for taking the time to look at this tab. PLEAASSEE RATE AND COMMENT!!
Listen, Play, Enjoy, Love, Rate 5 starz!

            
            
Suggest correction
Creating personal tab
Creating personal tab
You can edit any tab online and save it as your Personal.

You can edit, replace or remove any tab part or add personal notes – all changes will be seen only by you.

Personal tabs can be accessed anytime from any device, even offline.
Learn more »
comments
print report bad tab
3 comments total.
+1 reply
ryohku 10 Aug 09, 2009 09:58 PM

What an awesome tab. You put so much depth into this. Great job, keep up the good work!

0 reply
TresaLovesJonas 10 Aug 21, 2009 03:33 PM

Great tab!!!

0 reply
sg97 10 Aug 30, 2009 12:05 PM

???i dont like the jonas bros realy i just wanred the solo.i like the intro and end

guest
You may want to rate the tab now too:
select rating
Wanna post a correction for this tab? Suggest correction