Oops, an error
Loading. Please wait.

Give Love A Try tab

version 3
version 3

Interactive

25,601 views 36 this week
3 commentsread comments
1 2 3 4 5
x 3
add to favorites
×
Save as Personal and add changes to this tab that will be seen only by you. Learn more ›
×
You can save this tab as Personal to edit and correct it or add notes. All changes will be seen only by you. Learn more »
launch autoscroll
font size
0
reset
how to read this tab
guitar tuner
edit
Autoscroll
slow
fast
+/-
esc
set tempo
stop
Ok, this is my first tab so If it is bad please let me know
I watched the show and looked at the notes being played
I play it with a capo on the third fret but but for those of you who dont have a capo 
add 3 to each number and it should work just as well
Hope I did good
Enjoy

Capo: 3rd

Intro

e---------------------------------------------------------|
B---------------------------------------------------------|
G----1---1-h-2-----1---1-h-2------1---1-h-2-----1---1-h-2-|
D---------------------------------------------------------|
A--0---0---------0---0----------0---0---------0---0-------|
E---------------------------------------------------------|


e---------------------------------------------------------|
B---------------------------------------------------------|
G----2---2-h-1--------------------1---1-h-2-----1---1-h-2-|
D------------------4---4-h-2------------------------------|
A--0---0---------0---0----------0---0---------0---0-------|
E---------------------------------------------------------|

Verse

e-------------------------------------------------------------------|
B-------------------------------------------------------------------|
G----1---1-h-2------1---1-h-2--------------1---1-h-2------1---1-h-2-|
D-------------------------------------------------------------------|
A--0---0----------0---0------------------0---0----------0---0-------|
E-------------------------------------------------------------------|

You, you're like driving on a sunday - You, you're like taking off on monday

e---------------------------------------------------------|
B---------------------------------------------------------|
G----2---2-h-1--------------------1---1-h-2-----1---1-h-2-|
D------------------4---4-h-2------------------------------|
A--0---0---------0---0----------0---0---------0---0-------|
E---------------------------------------------------------|

You, you're like a dream, a dream come true

e------------------------------------------------------------|
B------------------------------------------------------------|
G----1---1-h-2-----1---1-h-2---------1---1-h-2-----1---1-h-2-|
D------------------------------------------------------------|
A--0---0---------0---0-------------0---0---------0---0-------|
E------------------------------------------------------------|

I, just a face you never notice - I, just trying to be honest with myself

e---------------------------------------------------------|
B---------------------------------------------------------|
G----2---2-h-1--------------------1---1-h-2-----1---1-h-2-|
D------------------4---4-h-2------------------------------|
A--0---0---------0---0----------0---0---------0---0-------|
E---------------------------------------------------------|

With you,        with the world

Chorus

e------------------------------------------------------------|
B------------------------------------------------------------|
G----1---1-h-2-----1---1-h-2---------1---1-h-2-----1---1-h-2-|
D------------------------------------------------------------|
A--0---0---------0---0-------------0---0---------0---0-------|
E------------------------------------------------------------|

You might think , that im a fool for falling over you

e---------------------------------------------------------|
B---------------------------------------------------------|
G----2---2-h-1--------------------1---1-h-2-----1---1-h-2-|
D------------------4---4-h-2------------------------------|
A--0---0---------0---0----------0---0---------0---0-------|
E---------------------------------------------------------|

so tell me what can I do to prove to you

e------------------------------------------------------------|
B------------------------------------------------------------|
G----1---1-h-2-----1---1-h-2---------1---1-h-2-----1---1-h-2-|
D------------------------------------------------------------|
A--0---0---------0---0-------------0---0---------0---0-------|
E------------------------------------------------------------|

That's not that hard to do - give love a try

e---------------------------------------------------------|
B---------------------------------------------------------|
G----2---2-h-1--------------------1---1-h-2-----1---1-h-2-|
D------------------4---4-h-2------------------------------|
A--0---0---------0---0----------0---0---------0---0-------|
E---------------------------------------------------------|

One more time - Cause you know that I'm on your side - give love a try

e------------------------------------------------------------|
B------------------------------------------------------------|
G----1---1-h-2-----1---1-h-2---------1---1-h-2-----1---1-h-2-|
D------------------------------------------------------------|
A--0---0---------0---0-------------0---0---------0---0-------|
E------------------------------------------------------------|

One more time

e---------------------------------------------------------|
B---------------------------------------------------------|
G----2---2-h-1--------------------1---1-h-2-----1---1-h-2-|
D------------------4---4-h-2------------------------------|
A--0---0---------0---0----------0---0---------0---0-------|
E---------------------------------------------------------|

Yeah Yeah

e-------------------------------|
B-------------------------------|
G----1---1-h-2-----1---1-h-2----|
D-------------------------------|
A--0---0---------0---0----------|
E-------------------------------|

            
            
Suggest correction
Creating personal tab
Creating personal tab
You can edit any tab online and save it as your Personal.

You can edit, replace or remove any tab part or add personal notes – all changes will be seen only by you.

Personal tabs can be accessed anytime from any device, even offline.
Learn more »
Give kudos to tab author, rate the tab!
1 2 3 4 5
comments
print report bad tab
3 comments total.
0 reply
Longhorn95 10 May 30, 2009 12:49 PM

Very nice

0 reply
kimvo 10 Sep 16, 2009 07:09 PM

hi, its very good, i love it. but can you redo the chourus part? its supposed to be different. idk what it is, but i know its supposed to be different than the verses. please update it, b/c i really wannna learn it :) please and ty

0 reply
amy32 24 Apr 03, 2010 05:29 PM

heeey, sounds pretty goood. probably could be done without the capo but this makes it a bit simpler.
thanks.

guest
You may want to rate the tab now too:
select rating
Wanna post a correction for this tab? Suggest correction