Oops, an error
Loading. Please wait.

Give Love A Try tab

version 4
version 4

Interactive

15,706 views 1 this week
1 commentread comment
1 2 3 4 5
x 5
add to favorites
×
Save as Personal and add changes to this tab that will be seen only by you. Learn more ›
×
You can save this tab as Personal to edit and correct it or add notes. All changes will be seen only by you. Learn more »
launch autoscroll
font size
0
reset
how to read this tab
guitar tuner
edit
Autoscroll
slow
fast
+/-
esc
set tempo
stop
Author
so....this is my first tab. it sounds pretty accurate, but i'm not sure its the correct 
to play the song but i guess if ur just looking for the correct sound this works.

it's pretty much the same thing for most of the song but i attempted to put the right 
at the right times but its not perfect. sorry.


(intro)
e-------------------------------------------------------|
B------0h1----0h1----0h1---0h1----1^0---------0h1---0h1-|
G---------------------------------------2^0-------------|
D-------------------------------------------------------|
A----3------3------0-----0------------------3-----3-----|
E-------------------------------3-----1-----------------|

   You     You're like drivin on a Sunday
e-----------------|
B------0h1----0h1-|
G-----------------|
D-----------------|
A----3------3-----|
E-----------------|

   You     You're like takin off on Monday
e----------------|
B------0h1---0h1-|
G----------------|
D----------------|
A----0-----0-----|
E----------------|

   You  You're like a dream
e-------------------|
B------1^0----------|
G---------------2^0-|
D-------------------|
A-------------------|
E----3--------1-----|

  A dream come true
e------------------------|
B--------------0h1---0h1-|
G------------------------|
D------------------------|
A------------3-----3-----|
E------------------------|

   I         Was just the face you'd never notice
e-----------------|
B------0h1----0h1-|
G-----------------|
D-----------------|
A----3------3-----|
E-----------------|

   Now   I'm just trying to be honest
e----------------|
B------0h1---0h1-|
G----------------|
D----------------|
A----0-----0-----|
E----------------|

  With myself     With you
e----------------------------|
B-----------1^0--------------|
G------------------------2^0-|
D----------------------------|
A----------------------------|
E---------3------------1-----|

   With the world
e------------------------|
B--------------0h1---0h1-|
G------------------------|
D------------------------|
A------------3-----3-----|
E------------------------|

      You might think That I'm a fool
e--------0--0------------x--|
B------1----1------------x--|
G----2------2---------0--0--|
D-----------x-------2----2--|
A-----------x-----3------3--|
E-----------x------------x--|

   For  falling over you
e-----------x-----------x--|
B--------3--3--------1--1--|
G------3----3------2----2--|
D----3------3----3------3--|
A-----------x-----------x--|
E-----------x-----------x--|

  Give love a try    one more time
e-----------------x--------------x--|
B-----------------x--------------x--|
G--------------1--1-----------0--0--|
D------------3----3---------2----2--|
A----------3------3-------3------3--|
E-----------------x--------------x--|

Cuz you know that i'm on your side
e-----------------x------------x--|
B-----------3-----3---------1--1--|
G---------3-------3-------2----2--|
D-------3---------3-----3------3--|
A-----------------x------------x--|
E-----------------x------------x--|

  Give love a try
e-----------------x---|
B-----------------x---|
G--------------1--1---|
D------------3----3---|
A----------3------3---|
E-----------------x---|

One more time

(outro)                             Yeah yeah     Oh
e---------------------------------------------------------|
B------0h1----0h1----0h1---0h1----1^0-----------0h1---0h1-|
G-----------------------------------------2^0-------------|
D---------------------------------------------------------|
A----3------3------0-----0--------------------3-----3-----|
E-------------------------------3-------1-----------------|

            
            
Suggest correction
Creating personal tab
Creating personal tab
You can edit any tab online and save it as your Personal.

You can edit, replace or remove any tab part or add personal notes – all changes will be seen only by you.

Personal tabs can be accessed anytime from any device, even offline.
Learn more »
comments
print report bad tab
1 comment total.
0 reply
blackmagi2go 10 Nov 06, 2009 06:18 PM

this is very good, but u missed a note between the 3 (0) 0h1. So i revised it and submitted a new tab.(:

guest
You may want to rate the tab now too:
select rating
Wanna post a correction for this tab? Suggest correction