Oops, an error
Loading. Please wait.

Goodnight And Goodbye intro tab

version 2
version 2

Intro

Interactive

4,873 views 1 this week
3 commentsread comments
1 2 3 4 5
x 3
add to favorites
×
Save as Personal and add changes to this tab that will be seen only by you. Learn more ›
×
You can save this tab as Personal to edit and correct it or add notes. All changes will be seen only by you. Learn more »
launch autoscroll
font size
0
reset
how to read this tab
guitar tuner
edit
Autoscroll
slow
fast
+/-
esc
set tempo
stop
this is my first tab and i have only been playing for about 2 weeks so e-mail me
if you think something is wrong at arielle-y@htomail.com


e---------------------------------------------------------------------e
B---------------------------------------------------------------------B
G------5---5---5---5---6---6---6---6---5---5---5---5---3---3-3~ ------G  x2
D---------------------------------------------------------------------D
A--------------------5---5---5---5---3---3---3---3---2---2------------A
E----5---5---5---5----------------------------------------------------E

This has been no walk in the park i feel like we have fallen apart
Open up your eyes girl and see how wonderful this love can be

(the rest is the way the vocal part sounds and not the guitar just so you know)

e---1-0------0-------0--------1-0-------0------------e
B-------3-1-3---3-1-3---3-1-3-----3-1-3---3-1-0------B
G-----------------------------------------------2----G
D----------------------------------------------------D
A----------------------------------------------------A
E----------------------------------------------------E

Hold on tight its a roller coaster ride we're on so 
Say goodbye cause we won't be back again

e---1-0---3-0-----0---------3-0---0---------------e
B-------3-----3-1---1-3-1-3-----3---3-1-----------B
G---------------------------------------2---------G
D-------------------------------------------------D
A-------------------------------------------------A
E-------------------------------------------------E

Up and down you're all around 
Say goodnight and goodbye


            
            
Suggest correction
Creating personal tab
Creating personal tab
You can edit any tab online and save it as your Personal.

You can edit, replace or remove any tab part or add personal notes – all changes will be seen only by you.

Personal tabs can be accessed anytime from any device, even offline.
Learn more »
Give kudos to tab author, rate the tab!
1 2 3 4 5
comments
print report bad tab
3 comments total.
0 reply
iluvjonasgurl 237 Feb 08, 2008 01:50 PM

btw, rated this and forgot to comment!!!! sorry! i really liked this one! it helped me tab mine.

0 reply
gurlyrockr96 31 Oct 20, 2008 04:24 PM

this really works thanx!

0 reply
kmi777 207 Oct 26, 2009 05:33 PM

this tab is so wrong

guest
You may want to rate the tab now too:
select rating
Wanna post a correction for this tab? Suggest correction