Oops, an error
Loading. Please wait.

Make It Right tab

version 3
version 3

Whole song

7,473 views 15 this week
1 commentread comment
1 2 3 4 5
x 6
add to favorites
×
Save as Personal and add changes to this tab that will be seen only by you. Learn more ›
×
You can save this tab as Personal to edit and correct it or add notes. All changes will be seen only by you. Learn more »
launch autoscroll
font size
0
reset
how to read this tab
guitar tuner
edit
Autoscroll
slow
fast
+/-
esc
set tempo
stop
This is the Full Version Tab of Jonas Brothers - Make it Right from the 2nd season
Jonas L.A
I tabbed this out by ear and I must say I think it is 100% correct, but if there
are any correction feel free to send them in :)

BTW!:
I tabbed this song out in Standard Tune, but I believe it's half-step  down.
I usually play it with a CAPO on the 1st fret, but I've also seen covers where
people use a CAPO on the 2nd fret!
Just mess around with it a 'bit and play what suits you best!

Thanks so much guys, and I hope you enjoy! :D


Make It Right Chords:

    (G)    (Em7)   (C9)    (Am)    (C)
e|---3---|---3---|---3---|---0---|---0---|
B|---3---|---3---|---3---|---1---|---1---|
G|---0---|---0---|---0---|---2---|---0---|
D|---0---|---2---|---2---|---2---|---2---|
A|---2---|---2---|---3---|---0---|---3---|
E|---3---|---0---|---0---|---0---|---0---|

INTRO:

e|-----------------|-----------------|----------------------|
B|--------3--------|---------3-------|---------3--------3---|
G|------0---0------|-------0---0-----|-------0---0----0---0-|
D|-----------------|-----------------|----------------------|
A|-----------------|--2--------------|--3-------------------|
E|--3--------------|-----------------|----------------------|

e|-----------------|-----------------|------------------3---|
B|--------3--------|---------3-------|---------3--------3---|
G|------0---0------|-------0---0-----|-------0---0------0---|
D|-----------------|-----------------|------------------2---|
A|-----------------|--2--------------|--3---------------3---|
E|--3--------------|-----------------|------------------0---|

VERSE:

(G)                  (Em7)                    (C9)
They say you'll know when you really find the one.

(G)                            (Em7)              (C9)
But it's hard to tell with the damage that's been done.

(G)                                (Em7)             (C9)
And I'd like to say that it's your fault, but I know better.

(Am)                               (C)
'Cause I'm a fool to think you'll wait around forever.

CHORUS:

     (G)  (Em7)     (C9)
Maybe I, could have loved you.

     (G)  (Em7)     (C9)
Maybe I, could have shown.

        (G)          (Em7)
That I still do care about you

          (C9)
More than you could know.

              (Am)        (C)
Don't say it's to late to try

 (Vocals Only)
To make it right...

                                      Ohh, To make it right...
e|-----------------|-----------------|----------------------|
B|--------3--------|---------3-------|---------3--------3---|
G|------0---0------|-------0---0-----|-------0---0----0---0-|
D|-----------------|-----------------|----------------------|
A|-----------------|--2--------------|--3-------------------|
E|--3--------------|-----------------|----------------------|

e|-----------------|-----------------|------------------3---|
B|--------3--------|---------3-------|---------3--------3---|
G|------0---0------|-------0---0-----|-------0---0------0---|
D|-----------------|-----------------|------------------2---|
A|-----------------|--2--------------|--3---------------3---|
E|--3--------------|-----------------|------------------0---|


VERSE 2:

(G)              (Em7)             (C9)
I didn't know how good you were for me.

(G)                       (Em7)             (C9)
Now It's clear, I'm seeing all that we could be.

(G)
And I know that it's my fault.

        (Em7)           (C9)
But I'm gonna treat you better.

(Am)
'Cause if I had one wish.

     (C)
You'd be with me forever.

CHORUS:

     (G)  (Em7)     (C9)
Maybe I, could have loved you.

     (G)  (Em7)     (C9)
Maybe I, could have shown.

        (G)          (Em7)
That I still do care about you

          (C9)
More than you could know.

              (Am)        (C)
Don't say it's to late to try

 (Vocals Only)
To make it right...

Oohhh!

BRIDGE:

(G)
Is there something I could say.

(C9)
Show me how to break it down.

(G)
So before you walk away.

(C9)
Take the time to turn around.

(G)
And listen to me now.


CHORUS:

              Maybe I, could have loved you
e|-----------------|-----------------|----------------------|
B|--------3--------|---------3-------|---------3--------3---|
G|------0---0------|-------0---0-----|-------0---0----0---0-|
D|-----------------|-----------------|----------------------|
A|-----------------|--2--------------|--3-------------------|
E|--3--------------|-----------------|----------------------|

               Maybe I, could have shown
e|-----------------|-----------------|---------------------|
B|--------3--------|---------3-------|---------3-------3---|
G|------0---0------|-------0---0-----|-------0---0---0---0-|
D|-----------------|-----------------|---------------------|
A|-----------------|--2--------------|--3------------------|
E|--3--------------|-----------------|---------------------|

       (G)          (Em7)
That I still do care about you

          (C9)
More than you could know.

              (Am)        (C)
Don't say it's to late to try


     (G)  (Em7)     (C9)
Maybe I, could have loved you.

     (G)  (Em7)     (C9)
Maybe I, could have shown.

        (G)          (Em7)
That I still do care about you

          (C9)
More than you could know.

              (Am)        (C)
Don't say it's to late to try

 (Vocals Only)
To make it right...


OUTRO:
                                       Ohh, To make it right
e|-----------------|-----------------|----------------------|
B|--------3--------|---------3-------|---------3--------3---|
G|------0---0------|-------0---0-----|-------0---0----0---0-|
D|-----------------|-----------------|----------------------|
A|-----------------|--2--------------|--3-------------------|
E|--3--------------|-----------------|----------------------|


Make it right.. (vocals hold throughout riff)
e|-----------------|-----------------|---------------------|
B|--------3--------|---------3-------|---------3-------3---|
G|------0---0------|-------0---0-----|-------0---0---0---0-|
D|-----------------|-----------------|---------------------|
A|-----------------|--2--------------|--3------------------|
E|--3--------------|-----------------|---------------------|

  Gonna make it right...  Ohh yeahh...
e|-----------------|-----------------|----------------------|
B|--------3--------|---------3-------|---------3--------3---|
G|------0---0------|-------0---0-----|-------0---0----0---0-|
D|-----------------|-----------------|----------------------|
A|-----------------|--2--------------|--3-------------------|
E|--3--------------|-----------------|----------------------|

e|-----------------|-----------------|------------------3---|
B|--------3--------|---------3-------|---------3--------3---|
G|------0---0------|-------0---0-----|-------0---0------0---|
D|-----------------|-----------------|------------------2---|
A|-----------------|--2--------------|--3---------------3---|
E|--3--------------|-----------------|------------------0---|


And there you Jonas Brother fans have it :)
Please feel free to comment and rate :)

            
            
Suggest correction
Creating personal tab
Creating personal tab
You can edit any tab online and save it as your Personal.

You can edit, replace or remove any tab part or add personal notes – all changes will be seen only by you.

Personal tabs can be accessed anytime from any device, even offline.
Learn more »
comments
print report bad tab
1 comment total.
0 reply
ClaraJays 52 May 25, 2017 01:27 PM

Hey ! Thank you very, this is an excellent tab, my friend ! But i think this is Cadd9 instead of C9.

guest
You may want to rate the tab now too:
select rating
Wanna post a correction for this tab? Suggest correction