Oops, an error
Loading. Please wait.

Set This Party Off tab

version 1
version 1

Whole song

10,061 views 1 this week
no commentswrite comment
1 2 3 4 5
x 4
add to favorites
×
Save as Personal and add changes to this tab that will be seen only by you. Learn more ›
×
You can save this tab as Personal to edit and correct it or add notes. All changes will be seen only by you. Learn more »
launch autoscroll
font size
0
reset
how to read this tab
guitar tuner
edit
Autoscroll
slow
fast
+/-
esc
set tempo
stop
Jonas LA: Set This Party Off
Tabbed By:nick4president


hey guys, this is one of the new songs from Jonas LA, called "Set This Party Off". I
it out by ear, im pretty sure is correct, if not, dont be scared to comment and let me know
changes to tab or lyrics :) Since the whole song is not released yet, i dont know any 
then the verse and chorus (lyrics and tab), so i hope you enjoy. if it doesn't make
listen to the song for a better understanding and feel free to mess around with the song 
make it sound awesome :D


Tuning: Standard


Verse:
e|---0-0----0-0----0-0----0~--0~-----|      ---0~----00000-------|
B|---0-0----0-0----0-0----0~--0~-----|      ---0~----00000-------|
G|---7-7----0-0----0-0----0~--0~-----|      ---0~----55555-------|
D|---7-7----4-4----5-5----8~--7~-----|      ---2~----55555-------|
A|---5-5----4-4----5-5----8~--7~-----|      ---2~----33333-------|
E|---0-0----2-2----3-3----6~--5~-----| x5   ---0~----00000-------|


 Chorus:
e|---0-0----0-0----0-0-----|
B|---0-0----0-0----0-0-----|
G|---0-0----7-7----0-0-----|
D|---5-5----7-7----7-7-----|
A|---5-5----5-5----7-7-----|
E|---3-3----0-0----5-5-----| x4


Lyrics:

Verse 1
Driving down the boulevard (so low)
She pulls up in her daddy's car (top down)
I said you got friends and I've gone mine
And I've got nothing on my mind
Rockin' out to my favorite songs
That's all I really need
Would it be better if you rolled with me?

Chrous
We got the words if you've got the melody
We got the time if you've got the place to be
And we're not gonna stop
Until we set it off
We got tonight to make every memory
Ready or not, 'cause we're gonna make you see
And we're not gonna stop
We're gonna set this party off


Thanks hope you enjoy :D

            
            
Suggest correction
Creating personal tab
Creating personal tab
You can edit any tab online and save it as your Personal.

You can edit, replace or remove any tab part or add personal notes – all changes will be seen only by you.

Personal tabs can be accessed anytime from any device, even offline.
Learn more »
comments
print report bad tab
guest
You may want to rate the tab now too:
select rating
Wanna post a correction for this tab? Suggest correction