Oops, an error
Loading. Please wait.

Shelf tab

version 2
version 2

Whole song

Interactive

20,811 views 1 this week
8 commentsread comments
1 2 3 4 5
x 23
add to favorites
×
Save as Personal and add changes to this tab that will be seen only by you. Learn more ›
×
You can save this tab as Personal to edit and correct it or add notes. All changes will be seen only by you. Learn more »
launch autoscroll
font size
0
reset
how to read this tab
guitar tuner
edit
Autoscroll
slow
fast
+/-
esc
set tempo
stop
Author
Tuning:Standard
hey guys! this is my "first" tab. i sent 2 tabs in and both were rejected! i
don't even know why!!
so i'm hoping this one will go through :P
Oh and thanks to UG user "ncroxalot4" who helped with corrections
now it should be 5 star quality so rate it and comment!!! :)

NOTE: You guys keep complaining about the intro not having slides or hammer-ons or any 
that. it's not that hard to do it your self. just slide or hammer-on where ever u think 
supposed to go......

INTRO:
e|---------12--10--------------------------------12--10--8-------------------|
B|--7--10----------7-----7--8--7----------7--10-------------7--8--7----------|
G|-------------------------------9--7--------------------------------9--7----|
D|---------------------------------------------------------------------------|
A|---------------------------------------------------------------------------|
E|---------------------------------------------------------------------------|

e|---------------------------------------------------------------------------|
B|-----------------------8--7------7--8--7-----------------------------------|
G|-----7--9--7-----7--9---------------------9--7-----------------------------|
D|--9-----------8---------------------------------9--7-----------------------|
A|------------------------------------------------------10--9----------------|
E|---------------------------------------------------------------------------|


VERSE:
e|--------------------------------------|
B|--------------------------------------|
G|--7-----------------------------------|
D|--7-x8---4------5------7------5-------| x2
A|--5------4-x8---5-x8---7-x3---5-x3----|
E|---------2------3------5------3-------|

e|-------------------------------------------------------------|
B|-------------------------------------------------------------|
G|-----------------------7------6------------------------------|
D|--4------9------7------7--x4--6--x4---9-------7-------5~~----|
A|--4-x8---9-x8---7-x8---5------4-------9--x4---7--x4---5~~----|
E|--2------7------5---------------------7-------5-------3~~----|


CHORUS:
e|--------------------------------------------------------------|
B|--------------------------------------------------------------|
G|--7------------------------------4-----------7----------------|
D|--7-x8--7-----8-----9-----10-----5-----5-----7-x8--7-7---5-5--| x2
A|--5-----7-x4--8-x4--9-x8--10-x8--5-x8--5-x8--5-----7-7---5-5--|
E|--------5-----6-----7-----8------3-----3-----------5-5---3-3--|

REPEAT VERSE

REPEAT CHORUS

BRIDGE
e|-----------------------------------------------------|
B|-----------------------------------------------------|
G|--5-5-5-5-------------7-7---6-6-7---7---7-9-7--------|
D|--5-5-5-5---5-5-5-5---7-7---6-6-7---7---7-9-7--------|
A|--3-3-3-3---5-5-5-5---5-5---4-4-5---5---5-7-5--------|
E|------------3-3-3-3----------------------------------|

e|-------------------------------------------------------------------|
B|-------------------------------------------------------------------|
G|--5-5-5-5-------------7-9-7-9-7-9\---------------------------------|
D|--5-5-5-5---5-5-5-5---7-9-7-9-7-9\----4-4-4--5~~--7~~--------------|
A|--3-3-3-3---5-5-5-5---5-7-5-7-5-7\----4-4-4--5~~--7~~---10-9-------|
E|------------3-3-3-3-------------------2-2-2--3~~--5~~--------12-10-|
|

AFTER BRIDGE CHORUS
e|------------------------------------------------------------------------|
B|----------------------------------------------7-8-7---------------------|
G|----------------------------------7------------------9-7----------------|
D|--------------------------5---5---7------7------------------9-----10----|
A|--5-x8--4-x8--2-x8--3-x8--5---5---5-x8---7-x3---------------9-x8--10-x3-|
E|--------------------------3---3----------5------------------7-----8-----|

e|---------------------------------------------------------------------------|
B|--7--8--7-----------------------------8--7-------------------------8--7----|
G|-----------9--7-----7--9--7-----7--9----------------------------7----------|
D|-----------------9-----------8---------------------7--9---7--9-------------|
A|---------------------------------------------7--9--------------------------|
E|---------------------------------------------------------------------------|

ENDING CHORUS: (strum eight for first 4 chords)
e|----------------------------15--14----------------|
B|------------------------------------15------------|
G|--7-------------------------------------12--11----|
D|--7---7---9---10---5------------------------------|
A|--5---7---9---10---5-x16--------------------------|
E|------5---7---8----3------------------------------|

OR!!!!
for the last note/chord you can either play  G--------11 (as above)
OORR!!
you can play D which is:
x
x
7
7
5
x

YAAYY :) give me 5 starzzz :P just kiddin

            
            
Suggest correction
Creating personal tab
Creating personal tab
You can edit any tab online and save it as your Personal.

You can edit, replace or remove any tab part or add personal notes – all changes will be seen only by you.

Personal tabs can be accessed anytime from any device, even offline.
Learn more »
comments
print report bad tab
8 comments total. Showing first comments.
0 reply
ncroxalot4 215 Sep 07, 2008 08:11 AM

i thought of tabbing this but you got the majority of it right. just a few fixes here and there. with these changes it is 5 star quality.


*(1st part of verse is fine just changin 2nd part)*

VERSE:
e|--------------------------------------|
B|--------------------------------------|
G|--7-----------------------------------|
D|--7-x8---4------5------7------5-------| x2
A|--5------4-x8---5-x8---7-x3---5-x3----|
E|---------2------3------5------3-------|

e|---------------------------------------------|
B|---------------------------------------------|
G|---------------------------------------------|
D|--4------5------4------5---------------------|
A|--4-x8---5-x8---4-x8---5-x(strum 'til chorus)|
E|--2------3------2------3---------------------|

***change to

VERSE:
e|--------------------------------------|
B|--------------------------------------|
G|--7-----------------------------------|
D|--7-x8---4------5------7------5-------| x2
A|--5------4-x8---5-x8---7-x3---5-x3----|
E|---------2------3------5------3-------|

***
e|-------------------------------------------------------------|
B|-------------------------------------------------------------|
G|-----------------------7------6------------------------------|
D|--4------9------7------7--x4--6--x4---9-------7-------5~~----|
A|--4-x8---9-x8---7-x8---5------4-------9--x4---7--x4---5~~----|
E|--2------7------5---------------------7-------5-------3~~----|


CHORUS: (sturm everything x8 except when instructed)
e|----------------------------------------------|
B|----------------------------------------------|
G|--7------------------------7------------------|
D|--7---7---9---10---5-------7---7------5-------| x2
A|--5---7---9---10---5-x16---5---7-x2---5-x2----|
E|------5---7---8----3-----------5------3-------|


***change to


CHORUS:
e|--------------------------------------------------------------|
B|--------------------------------------------------------------|
G|--7------------------------------4-----------7----------------|
D|--7-x8--7-----8-----9-----10-----5-----5-----7-x8--7-7---5-5--| x2
A|--5-----7-x4--8-x4--9-x8--10-x8--5-x8--5-x8--5-----7-7---5-5--|
E|--------5-----6-----7-----8------3-----3-----------5-5---3-3--|


(the G major to G minor chord is optional but it sounds a lot
better when its played this way) (3554xx to 355xxx)


***change bridge to this
(just play around with strummin you'll get it)


BRIDGE
e|-----------------------------------------------|
B|-----------------------------------------------|
G|--5-5-5-5-----------7-7---6-6-7---7---7-9-7-6--|
D|--5-5-5-5--5-5-5-5--7-7---6-6-7---7---7-9-7-6--|
A|--3-3-3-3--5-5-5-5--5-5---4-4-5---5---5-7-5-4--|
E|-----------3-3-3-3-----------------------------|

e|-----------------------------------------------------|
B|-----------------------------------------------------|
G|--5-5-5-5-----------7-9-7-9-7-9\---------------------|
D|--5-5-5-5--5-5-5-5--7-9-7-9-7-9\----4-4-4--5~~--7~~--|
A|--3-3-3-3--5-5-5-5--5-7-5-7-5-7\----4-4-4--5~~--7~~--|
E|-----------3-3-3-3------------------2-2-2--3~~--5----|

0 reply
miketheburn 10 Oct 05, 2008 06:30 PM

This is a really well done piece of art.

0 reply
gurlyrockr96 31 Oct 13, 2008 03:51 PM

isnt the first note a slide?

guest
You may want to rate the tab now too:
select rating
Wanna post a correction for this tab? Suggest correction