Oops, an error
Loading. Please wait.
We have Chord Pro version of Sos.
It's the closest thing you can get to the original song and it has interactive parts. Check out the tab »
×
21,438 views 9 this week
2 commentsread comments
1 2 3 4 5
x 3
add to favorites
×
Save as Personal and add changes to this tab that will be seen only by you. Learn more ›
×
You can save this tab as Personal to edit and correct it or add notes. All changes will be seen only by you. Learn more »
launch autoscroll
font size
0
reset
how to read this tab
guitar tuner
edit
Autoscroll
slow
fast
+/-
esc
set tempo
stop
Difficulty
INTRO
e|------------------------------------------|
B|------------------------------------------|
G|-------------------5--5--3----------------|
D|-----5----5-------------------------------|
A|-------------2--3-------------------------|
E|---3----3---------------------------------|
    (Told you I made dinner plans....)
e|------------------------------------------|             x2
B|------------------------------------------|
G|-------------------5--5--3----------------|
D|-----5----5-------------------------------|
A|-------------2--3-------------------------|
E|---3----3---------------------------------|
          (with awkward situations...)
e|------------------------------------------|
B|------------------------------------------|
G|---------------------7-----7--------------|
D|------------------------------------------|
A|-----7----7---4--5------5-----------------|
E|---0----0---------------------------------|

e|------------------------------------------|
B|------------------------------------------|
G|------------------------------------------|
D|-----------7-----7----------7-------------|
A|------------------------------------------|
E|-----4--5-----5-------4--5----------------|

 ~CHORUS~
       (Ooo This is an SOS don't wanna second guess)
e|------------------------------------------------------|
B|------------------------------------------------------|
G|--9-----5---------7-----------------------------------|
D|--9-----5----5----7-----------------------------------|     x2
A|--7-----3----5----5-----------------------------------|
E|-------------3----------------------------------------|

e|------------------------------------------------------|
B|------------------------------------------------------|
G|---------5---------7----------5-----------------------|
D|---7-----5----5----7----7-----5-----------------------|
A|---7-----3----5----5----7-----3-----------------------|
E|---5----------3---------5-----------------------------|


       
e|------------------------------------------|
B|------------------------------------------|
G|-------------------5--5--3----------------|
D|-----5----5-------------------------------|
A|-------------2--3-------------------------|
E|---3----3---------------------------------|
    



(Told you I made dinner plans....)
e|------------------------------------------|             
B|------------------------------------------|
G|-------------------5--5--3----------------|
D|-----5----5-------------------------------|
A|-------------2--3-------------------------|
E|---3----3---------------------------------|
          

e|------------------------------------------|             
B|------------------------------------------|
G|-------------------5--5--3----------------|
D|-----5----5-------------------------------|
A|-------------2--3-------------------------|
E|---3----3---------------------------------|


       (with awkward situations...)
e|------------------------------------------|
B|------------------------------------------|
G|---------------------7-----7--------------|
D|------------------------------------------|
A|-----7----7---4--5------5-----------------|
E|---0----0---------------------------------|

e|------------------------------------------|
B|------------------------------------------|
G|------------------------------------------|
D|-----------7-----7----------7-----5-------|
A|------------------------------------------|
E|-----4--5-----5-------4--5-----4----------|


e|------------------------------------------------------|
B|------------------------------------------------------|
G|--9-----5---------7-----------------------------------|
D|--9-----5----5----7-----------------------------------|     x2
A|--7-----3----5----5-----------------------------------|
E|-------------3----------------------------------------|


e|------------------------------------------------------|
B|------------------------------------------------------|
G|---------5---------7----------5-----------------------|
D|---7-----5----5----7----7-----5-----------------------|
A|---7-----3----5----5----7-----3-----------------------|
E|---5----------3---------5-----------------------------|


e|------------------------------------------------------|
B|------------------------------------------------------|
G|--9----7----------5-----7-----------------------------|
D|--9----7----7-----5-----7-----------------------------|
A|--7----5----7-----3-----5-----------------------------|
E|------------5-----------------------------------------|


TECHNO SHYT


e|------------------------------------------------------|
B|------------------------------------------------------|
G|--9-----5---------7-----------------------------------|
D|--9-----5----5----7-----------------------------------|     x2
A|--7-----3----5----5-----------------------------------|
E|-------------3----------------------------------------|

e|------------------------------------------------------|
B|------------------------------------------------------|
G|---------5---------7----------5-----------------------|
D|---7-----5----5----7----7-----5-----------------------|
A|---7-----3----5----5----7-----3-----------------------|
E|---5----------3---------5-----------------------------|

            
            
Suggest correction
Creating personal tab
Creating personal tab
You can edit any tab online and save it as your Personal.

You can edit, replace or remove any tab part or add personal notes – all changes will be seen only by you.

Personal tabs can be accessed anytime from any device, even offline.
Learn more »
Give kudos to tab author, rate the tab!
1 2 3 4 5
comments
print report bad tab
2 comments total.
0 reply
_x_PaPeRcUt_x_ 10 Feb 16, 2009 08:28 AM

works 4 me =]

0 reply
SumFX 2,564 Jun 19, 2010 12:45 PM

Awesome!
and why the hell are ppl posting stupid comments?

guest
Wanna post a correction for this tab? Suggest correction