Oops, an error
Loading. Please wait.

Tonight tab

version 1
version 1

Whole song

Interactive

30,932 views 1 this week
4 commentsread comments
1 2 3 4 5
x 8
add to favorites
×
Save as Personal and add changes to this tab that will be seen only by you. Learn more ›
×
You can save this tab as Personal to edit and correct it or add notes. All changes will be seen only by you. Learn more »
launch autoscroll
font size
0
reset
how to read this tab
guitar tuner
edit
Autoscroll
slow
fast
+/-
esc
set tempo
stop
Author
07/30: added bridge!
08/23: updated chorus

Ello! this is a tab for Tonight by Jonas Bros. Submitted to UG at 2 am, only 2 hours
its release on iTunes.

For the verse, you can palm mute, or play the notes individually, or play it clean with 
reverb and delay, or play however you want. The chords are supplied.

Intro, post chorus, and outro.
e|---------------------------------------------------------------------------|
B|---------------------------------------------------------------------------|
G|--9-9-9-9-9----------------------------------------------------------------|
D|--9-9-9-9-9----------------------------------------------------------------|
A|--7-7-7-6-7----------------------------------------------------------------|
E|---------------------------------------------------------------------------|

Verse
e|---------------------------------------------------------------------------|
B|---------------------------------------------------------------------------|
G|--6~--------4~-------------------------------------------------------------|
D|--6~--------4~--------7~---------------------------------------------------|
A|--4~--------2~--------7~---------------------------------------------------|
E|----------------------5~---------------------------------------------------|

Prechorus
e|---------------------------------------------------------------------------|
B|---------------------------------------------------------------------------|
G|---------------------------------------------------------------------------|
D|--4444444444444444--7777777777777777---------------------------------------|
A|--4444444444444444--7777777777777777---------------------------------------|
E|--2222222222222222--5555555555555555---------------------------------------|

Chorus
e|---------------------------------------------------------------------------|
B|---------------------------------------------------------------------------|
G|---99999999-99999999-------------------------------------------------------|
D|---99999999-99999999--7777777777777777-------------------------------------|
A|---77777777-66666666--7777777777777777-------------------------------------|
E|----------------------5555555555555555-------------------------------------|

Bridge
e|---------------------------------------------------------------------------|
B|---------------------------------------------------------------------------|
G|--66666666------------------------------(on the last time, play the last---|
D|--66666666--77777777--4444444444444444---chord once and slide down)--------|
A|--44444444--77777777--4444444444444444-------------------------------------|
E|------------55555555--2222222222222222-------------------------------------|

End:
e|---------------------------------------------------------------------------|
B|---------------------------------------------------------------------------|
G|---9-----------------------------------------------------------------------|
D|---9-----------------------------------------------------------------------|
A|---7-----------------------------------------------------------------------|
E|---------------------------------------------------------------------------|

| /  slide up
| \  slide down
| h  hammer-on
| p  pull-off
| ~  vibrato
| +  harmonic
| x  Mute note
===============================================================================

            
            
Suggest correction
Creating personal tab
Creating personal tab
You can edit any tab online and save it as your Personal.

You can edit, replace or remove any tab part or add personal notes – all changes will be seen only by you.

Personal tabs can be accessed anytime from any device, even offline.
Learn more »
comments
print report bad tab
4 comments total. Showing first comments.
+1 reply
BamMargera789 63 Jul 30, 2008 12:29 AM

great tab!

+2 reply
Slash42x 182 Jul 30, 2008 04:11 PM

Incase UG doesn't accept, the bridge is:

E|-----------------------------------------|
B|-----------------------------------------|
G|--66666666-------------------------------|
D|--66666666-77777777-4444444444444444-----|
A|--44444444-77777777-4444444444444444-----|
E|-----------55555555-2222222222222222-----|

0 reply
jbluver42 10 Jul 31, 2008 10:03 PM

s0unds great

guest
You may want to rate the tab now too:
select rating
Wanna post a correction for this tab? Suggest correction