Oops, an error
Loading. Please wait.

When You Look Me In The Eyes chords

version 3
version 3

Interactive

48,124 views 252 this week
2 commentsread comments
1 2 3 4 5
x 7
add to favorites
×
Save as Personal and add changes to this tab that will be seen only by you. Learn more ›
×
You can save this tab as Personal to edit and correct it or add notes. All changes will be seen only by you. Learn more »
launch autoscroll
font size
0
reset
transpose
0
reset
display chords
guitar tuner
edit
Autoscroll
slow
fast
+/-
esc
set tempo
stop
Strumming
There is no strumming pattern for this song yet. and get +5 IQ
                 Jonas Brothers
                       -
            When You Look Me In The Eyes

TabbeD by: ToNi RiCcIO
e-mail: toni-italia@msn.com

   well well well, i am not fan of this musical genre, in fact i hat it, but this song 
great. i got it by ear so dont critique me any correction or congratulations just e-mail me.

                                             ºººToNiººº
if ya`wanna play this song you`ll need

guitar 1: acoustic
guitar 2: electric guitar (without distortion)
guitar 3: another electric guitar(also without too much distortion)
piano   : that can also be played with the chords
bass:   ill later tab the bass part for this song

Intro: GUITAR 2
1|--15--17----|
2|----15--15--|
3|------------| x4
4|------------|
5|------------|
6|------------|

(00:08)-(00:20)
GUITAR 2 & 3

1|--9--10-------9--10------9--10------12-10-9-----|
2|---10---8~-----10--10~----10---8~----------10~--|
3|------------------------------------------------|
4|------------------------------------------------|
5|------------------------------------------------|
6|------------------------------------------------|

in (00:089-(00:20) guitar 1 plays these chords:
 G-D-Em-C x2

VERSE 1: Guitar 1

G                       D
If the heart is always searching
                    Em
Can you ever find a home
                            C
I've been looking for that someone,
Ill never make it on my own
G                      D
Dreams can't take the place of loving you,
              Em              Am             C
There's gotta be a million reasons why it's true.

CHORUS: GUITAR 1 & PIANO PLAY THE CHORDS
                         G
When you look me in the eyes,
                      D
And tell me that you love me
               Em
Everything's alright,
                              C
When you're right here by my side
                         G
When you look me in the eyes,
                       D
I catch a glimpse of heaven
  Em       Am   C
I find my paradise,
                         G
When you look me in the eyes.

(NOTE THIS IS IMPORTANT, IN THE CHORUS THE GUITAR 2 & 3 STRUM THE SAME CHORDS AS GUITAR 
BUT ONLY ONCE EACH)

CHORUS: GUITAR 2 & 3(LET THEM RING)
  "WHEN YOU LOOK ME IN THE EYES, AND TELL ME THAT YOU LOVE ME
1|----------------------------3-------------------------2---|
2|----------------------------0-------------------------3---|
3|----------------------------0-------------------------2---|
4|----------------------------0-------------------------0---|
5|----------------------------2-----------------------------|
6|----------------------------3-----------------------------|

  EVERYTHINGS ALRIGHT, WHEN YOU'RE RIGHT HERE BY MY SIDE
1|--------------0------------------------------------0---------|
2|--------------0------------------------------------1---------|
3|--------------0------------------------------------0---------|
4|--------------2------------------------------------2---------|
5|--------------2------------------------------------3---------|
6|--------------0----------------------------------------------|

    WHEN YOU LOOK ME IN THE EYES, I CATCH THAT GLIMPSE OF HEAVEN
1|----------------------------3------------------------------2-----|
2|----------------------------0------------------------------3-----|
3|----------------------------0------------------------------2-----|
4|----------------------------0------------------------------0-----|
5|----------------------------2------------------------------------|
6|----------------------------3------------------------------------|

    I FIND MY PARADISE, WHEN YOU LOOK ME IN THE EYES"
1|-----0-------0----0-----------------------------3-----|
2|-----0-------1----1-----------------------------0-----|
3|-----0-------2----0-----------------------------0-----|
4|-----2-------2----2-----------------------------0-----|
5|-----2-------0----3-----------------------------2-----|
6|-----0-------0----------------------------------3-----|
END OF CHORUS (1:23)

VERSE 2: GUITAR 1 & PIANO

G                    D
How long will I be waiting,
                   Em
To be woth you again
                       C
Gonna tell you that I love you,
In the best way that I can.
G              D
I can't take a day without you here,
           Em                    Am        C
You're the light that makes my darkness disappear

REPEAT CHORUS

THEN THE BRIDGE (02:19)GUITAR 1 & 2
 IN THE BRIDGE THE GUITAR 1 PLAYS THIS CHORDS

Bm-Bm-Am-G

AND GUITAR 2 PLAYS THIS:
1|---------------------------------------------------------------/
2|---------------------------------------------------------------/
3|---------------------------------------------------------------/
4|-444-444--444-444--222-222-----------------------------------5-/
5|-222-222--111-111--000-000-----------------------------------5-/LET RING
6|----------------------------0-2-0-2-0-2-0-2-0-2--------------3-/

AND IN (02:40) ITS  THE SAME CHORUS BUT I RECOMEND YOU TO PLAY IT WITH THE SAME CHORDS 
APREGGIO

AND THEN IN (02:52) ITS THE CHORUS BUT WITH ANOTHER LYRICS

 CHORUS
                         G
  When i hold you in my arms
                   D
  I know that is forever
              Em
  I just want to let you know
                            C
  I wont let you go
                                   G
  Because when you look me in the eyes
                        D
  And tell me that you love me
               Em
  Everythings alright
                               C
  When youre right here by my side
                           G
  When you look me in the eyes
                            D
  I catch that glimpse of heaven
     Em      Am    C
  I find my paradise
                           G
  When you look me in the eyes

OUTRO (03:37): GUITAR 1 PLAYS THIS CHORDS G-D-Em-C x2

GUITAR 1 & 2
1|--9--10-------9--10------9--10------12-10-9-----|
2|---10---8~-----10--10~----10---8~----------10~--|
3|------------------------------------------------|
4|------------------------------------------------|
5|------------------------------------------------|
6|------------------------------------------------|

 OOoOoH yEaAaAh!

                            EnD!

Thats all folks i hope you had enjoyed it anything you want just e-mail me

peace!


                                                 ºººToNiººº

            
            
Suggest correction
Creating personal tab
Creating personal tab
You can edit any tab online and save it as your Personal.

You can edit, replace or remove any tab part or add personal notes – all changes will be seen only by you.

Personal tabs can be accessed anytime from any device, even offline.
Learn more »
comments
print report bad tab
2 comments total.
0 reply
JaaayisLouuud 31 Jul 12, 2010 06:40 AM

woah. :o

0 reply
jossin1995 10 Aug 09, 2017 07:18 AM

sore dude it wont work for me,, i guess its better if i use like this
"intro G,A,Bm,A,G"
Chorus D,A,Bm,A,G,A

verse: (G)DDUUDDDU(A)DDUUDDDU(Bm)DDUUDD(A)DU(G)DDUUDDDU
chorus: (D)DDUUDDDU(A)DDUUDDDU(Bm)DDUUD(A)DU(G)DDDU(A)DUDUDDU(repeat)

guest
Wanna post a correction for this tab? Suggest correction