Oops, an error
Loading. Please wait.

When You Look Me In The Eyes tab

version 6
version 6

Interactive

14,681 views 1 this week
7 commentsread comments
1 2 3 4 5
2 more votes to show rating
add to favorites
×
Save as Personal and add changes to this tab that will be seen only by you. Learn more ›
×
You can save this tab as Personal to edit and correct it or add notes. All changes will be seen only by you. Learn more »
launch autoscroll
font size
0
reset
how to read this tab
guitar tuner
edit
Autoscroll
slow
fast
+/-
esc
set tempo
stop
Author
Difficulty
Song: When You Look Me In The Eyes
Artist: Jonas Brothers
Ear Tabber: Christopher John Tiu
Age: 15

I dedicate this song to my girlfriend.... Pam :)

---------------------READ 1st BEFORE PLAYING THE SONG--------------------

Tunning: DADDDD ( note:PLEASE FOLLOW THE TUNNING TO GET THE RIGHT SOUND!!!!)
If u dont have a tunner heres an online tunner for ur guitar!!
))---->>http://www.howtotuneaguitar.org/
-PLEASE leave some comments and corrections for my tab.. Thankies! :D

Intro 1:
( -only the keyboard is playing this part)

Intro 2:
(Listen to the song to get the right timing ang the correct strumming)
D|---0----0-----0----0----|
D|---0----0-----0----0----|
D|---0----0-----0----0----|
D|---12---5-----12---7----|(2x)
A|---0----0-----0----0----|
D|---12---5-----12---7----|

Verse 1:
D|---000000--000000--0000--0--000000----|
D|---000000--000000--0000--0--000000----|
D|---000000--000000--0000--0--000000----|
D|---555555--777777--9999--7--555555----|
A|---000000--000000--0000--0--000000----|
D|---555555--777777--9999--7--555555----|

D|---000000--000000--0000--0--000--000----|
D|---000000--000000--0000--0--000--000----|
D|---000000--000000--0000--0--000--000----|
D|---555555--777777--9999--7--555--777----|
A|---000000--000000--0000--0--000--000----|
D|---555555--777777--9999--7--555--777----|

Chorus:
D|---0-0-0-0-0-0---0-0-0-0-0-0---0000--0--0000--0----|
D|---0-0-0-0-0-0---0-0-0-0-0-0---0000--0--0000--0----|
D|---0-0-0-0-0-0---0-0-0-0-0-0---0000--0--0000--0----|
D|---121212121212--121212121212--9999--7--5555--7----|
A|---0-0-0-0-0-0---0-0-0-0-0-0---0000--0--0000--0----|
D|---121212121212--111111111111--9999--7--5555--7----|

D|---0-0-0-0-0-0---0-0-0-0-0-0---0000--0--0000--0--0~~--|
D|---0-0-0-0-0-0---0-0-0-0-0-0---0000--0--0000--0--0~~--|
D|---0-0-0-0-0-0---0-0-0-0-0-0---0000--0--0000--0--0~~--|
D|---121212121212--121212121212--9999--7--5555--7--12~--|
A|---0-0-0-0-0-0---0-0-0-0-0-0---0000--0--0000--0--0~~--|
D|---121212121212--111111111111--9999--7--5555--7--12~--|

Verse 2:
D|---000000--000000--0000--0--000000----|
D|---000000--000000--0000--0--000000----|
D|---000000--000000--0000--0--000000----|
D|---555555--777777--9999--7--555555----|
A|---000000--000000--0000--0--000000----|
D|---555555--777777--9999--7--555555----|

D|---000000--000000--0000--0--000--000----|
D|---000000--000000--0000--0--000--000----|
D|---000000--000000--0000--0--000--000----|
D|---555555--777777--9999--7--555--777----|
A|---000000--000000--0000--0--000--000----|
D|---555555--777777--9999--7--555--777----|

Chorus:
D|---0-0-0-0-0-0---0-0-0-0-0-0---0000--0--0000--0----|
D|---0-0-0-0-0-0---0-0-0-0-0-0---0000--0--0000--0----|
D|---0-0-0-0-0-0---0-0-0-0-0-0---0000--0--0000--0----|
D|---121212121212--121212121212--9999--7--5555--7----|
A|---0-0-0-0-0-0---0-0-0-0-0-0---0000--0--0000--0----|
D|---121212121212--111111111111--9999--7--5555--7----|

D|---0-0-0-0-0-0---0-0-0-0-0-0---0000--0--0000--0--0~~--|
D|---0-0-0-0-0-0---0-0-0-0-0-0---0000--0--0000--0--0~~--|
D|---0-0-0-0-0-0---0-0-0-0-0-0---0000--0--0000--0--0~~--|
D|---121212121212--121212121212--9999--7--5555--7--12~--|
A|---0-0-0-0-0-0---0-0-0-0-0-0---0000--0--0000--0--0~~--|
D|---121212121212--111111111111--9999--7--5555--7--12~--|

Bridge:
D|---000-000--000-000--000-000----|
D|---000-000--000-000--000-000----|
D|---000-000--000-000--000-000----|
D|---999-999--777-777--555-555----|
A|---000-000--000-000--000-000----|
D|---999-999--777-777--555-555----|

D|-------------------0000000--0000000----|
D|-------------------0000000--0000000----|
D|-------------------0000000--0000000----|
D|-0-2-0-2-0-2-0-2---5555555--7777777----|
A|-0-2-0-2-0-2-0-2---0000000--0000000----|
D|-------------------5555555--7777777----|

Chorus:(silent)
D|---0-~--0~--0~--0--0000--000----|
D|---0-~--0~--0~--0--0000--000----|
D|---0-~--0~--0~--0--0000--000----|
D|---12~--7~--9~--7--5555--777----|
A|---0-~--0~--0~--0--0000--000----|
D|---12~--7~--9~--7--5555--777----|

D|---0-0-0-0-0-0---0-0-0-0-0-0---0000--0--0000--0--|
D|---0-0-0-0-0-0---0-0-0-0-0-0---0000--0--0000--0--|
D|---0-0-0-0-0-0---0-0-0-0-0-0---0000--0--0000--0--|
D|---121212121212--121212121212--9999--7--5555--7--|(3x)
A|---0-0-0-0-0-0---0-0-0-0-0-0---0000--0--0000--0--|
D|---121212121212--111111111111--9999--7--5555--7--|

Outro:
D|---0----0-----0----0----|
D|---0----0-----0----0----|
D|---0----0-----0----0----|
D|---12---5-----12---7----|(2x)
A|---0----0-----0----0----|
D|---12---5-----12---7----|

End with
D|---0-~----|
D|---0-~----|
D|---0-~----|
D|---12~----|
A|---0-~----|
D|---12~----|


Lyrics:

Verse 1:
If the heart is always searching,
Can you ever find a home?
I've been looking for that someone,
I'll never make it on my own
Dreams can't take the place of loving you,
There's gotta be a million reasons why it's true.

Chorus:
When you look me in the eyes,
And tell me that you love me.
Everything's alright,
When you're right here by my side.
When you look me in the eyes,
I catch a glimpse of heaven.
I find my paradise,
When you look me in the eyes.

Verse 2:
How long will I be waiting,
To be with you again
Gonna tell you that I love you,
In the best way that I can.
I can't take a day without you here,
You're the light that makes my darkness disappear.

Chorus:
When you look me in the eyes,
And tell me that you love me.
Everything's alright,
When you're right here by my side.
When you look me in the eyes,
I catch a glimpse of heaven.
I find my paradise,
When you look me in the eyes.

Bridge:
More and more, I start to realize,
I can reach my tomorrow,
I can hold my head up high,
And it's all because you're by my side.

Chorus:
When you look me in the eyes,
And tell me that you love me.
Everything's alright,
When you're right here by my side.
When I hold you in my arms,
I know that it's forever.
I just gotta let you know,
I never wanna let you go.

When you look me in the eyes.

And tell me that you love me.
Everything's alright,
When you're right here by my side.
When you look me in the eyes,
I catch a glimpse of heaven.
I find my paradise,
When you look me in the eyes.
Oh

===================================-END-====================================

Genome Band:
|---Vocals: ?????? Trying to find one..Apply na!Just Call 911 TY..--->
.........................................................................
|---Lead Guitar(gtr.2): Charliemagne Uy--->
.........................................................................
|---Rhythm Guitar(gtr.1) : Christopher Tiu--->
.........................................................................
|---Bass Guitar: Ryns Lable--->
.........................................................................
|---Keyboards: Jessa Dillera--->
.........................................................................
|---Drums: Gesster Ortega--->
.........................................................................


            
            
Suggest correction
Creating personal tab
Creating personal tab
You can edit any tab online and save it as your Personal.

You can edit, replace or remove any tab part or add personal notes – all changes will be seen only by you.

Personal tabs can be accessed anytime from any device, even offline.
Learn more »
Give kudos to tab author, rate the tab!
1 2 3 4 5
comments
print report bad tab
7 comments total. Showing first comments.
-1 reply
jnorth1969 265 Dec 06, 2008 02:59 PM

You wanted feedback? I think that this contribution looks like a poorly-executed joke, though I'll give you credit for showing some of the correct bass notes for the chords. I'm the contributor of Version 5 of this tune, and though I won't claim that it's a perfect lift, it's a damn sight closer than this.

-1 reply
girl-tarist 157 Jan 07, 2009 09:59 AM

I highly doubt that the Jonas Brothers, their band, or anyone playing more than one song in a set would play this song in this tuning. Your tab is much too complicated than the song actually is. WYLMITE is probably easier to play in Standard E tuning for beginners and more advanced players. (Especially since most of us only own 1 guitar, or can't be bothered to tune one like this.)

0 reply
genome619 166 Feb 01, 2009 12:17 AM

>.> fine.... but u know ive seen the jonas brothers play this song a few times live and ive been looking at how kevin plays it im sure that this tab has the same numbers where he plays it im just not sure about the tunning.... well anyways thanks for the comment^^

guest
You may want to rate the tab now too:
select rating
Wanna post a correction for this tab? Suggest correction