Oops, an error
Loading. Please wait.

World War Iii tab

version 2
version 2

Whole song

Interactive

4,549 views 1 this week
no commentswrite comment
1 2 3 4 5
x 6
add to favorites
×
Save as Personal and add changes to this tab that will be seen only by you. Learn more ›
×
You can save this tab as Personal to edit and correct it or add notes. All changes will be seen only by you. Learn more »
launch autoscroll
font size
0
reset
how to read this tab
guitar tuner
edit
Autoscroll
slow
fast
+/-
esc
set tempo
stop
----------------------------------------------------------------------------
                             World War III (3) - Jonas Brothers
----------------------------------------------------------------------------

Tabbed by:XxGuitarZer0xX

Email:Spongebobs400s@hotmail.com

Tuning:Standard




Intro - Guitar 1
(x = mute all strings and strum (heavy distortion makes the best tone/sound)
e|-xxxxxx---------------------------------------|
B|-xxxxxx---------------------------------------|
G|-xxxxxx-44-44-44-44-----------------------3/4-|
D|-xxxxxx-44-44-44-44--22-22-22-22--55-5/4--3/4-|x2
A|-xxxxxx-22-22-22-22--22-22-22-22--55-5/4--1/2-|
E|-xxxxxx--------------00-00-00-00--33-3/2------|




Intro - Guitar 2 (this combines the horns..Synth...and second guitar)
There is two dashes in between where the horns and synth change
e|-xxxxxx--------------xx-------------------------------------|
B|-xxxxxx-7------------xx-7---------------7-------------------|
G|-xxxxxx---9/11/9-7---xx---9/11/9-7--------9-7------9-7-9/11-|
D|-xxxxxx------------9-xx------------9-7--------9-------------|
A|-xxxxxx--------------xx-------------------------------------|
E|-xxxxxx--------------xx-------------------------------------|

Continued Below

e|--------------xx----------------------------------------|
B|-7------------xx-7-------------7-------7----------------|
G|---9/11/9-7---xx---9/11/9-7------9-7-----9-7-9/11~~-----|
D|------------9-xx------------9--------9--------------7-9-|
A|--------------xx----------------------------------------|
E|--------------xx----------------------------------------|




Verse - Both Guitars
e|------------------------------|     
B|------------------------------|    
G|------3/4-------3/4-------3/4-|     
D|-5\4--3/4--5\4--3/4--5\4--3/4-|x 2
A|-5\4--1/2--5\4--1/2--5\4--1/2-|    
E|-3\2-------3\2-------3\2------|

continued below after doing that section twice

e|-----------------|   
B|-----------------| 
G|------3/4--------| 
D|-5\4--3/4--5\4-5-|
A|-5\4--1/2--5\4-5-|
E|-3\2-------3\2-3-|





Pre Chorus - Both Guitars
e|-----------------|
B|-----------------|
G|---------------2-|
D|-2~~-5~~-2~~-5-2-|
A|-2~~-5~~-2~~-5-0-|
E|-0~~-3~~-0~~-3---|




Chorus - Both Guitars (sorry could not figure out the horns!)
e|---------------------------------------|
B|---------------------------------------|
G|-44-44-44-44-----------------------3/4-|
D|-44-44-44-44--22-22-22-22--55-5/4--3/4-| x2
A|-22-22-22-22--22-22-22-22--55-5/4--1/2-|
E|--------------00-00-00-00--33-3/2------|




After - Chorus - Guitar 1 is the same as the intro so
e|---------------------------------------|
B|---------------------------------------|
G|-44-44-44-44-----------------------3/4-|
D|-44-44-44-44--22-22-22-22--55-5/4--3/4-|x2
A|-22-22-22-22--22-22-22-22--55-5/4--1/2-|
E|--------------00-00-00-00--33-3/2------|




After - Chorus - Guitar 2 (this combines the horns..Synth...and second guitar)
There is two dashes in between where the horns and synth change
e|--------------xx-----------------------------------|
B|-7------------xx-7---------------7-----------------|
G|---9/11/9-7---xx---9/11/9-7--------9-7----9-7-9/11-|
D|------------9-xx------------9-7--------9-----------|
A|--------------xx-----------------------------------|
E|--------------xx-----------------------------------|

Continued Below

e|--------------xx-------------------------------------|
B|-7------------xx-7-------------7--------7------------|
G|---9/11/9-7---xx---9/11/9-7------9-7------9-7-9/11~~-|
D|------------9-xx------------9--------9---------------|
A|--------------xx-------------------------------------|
E|--------------xx-------------------------------------|




repeat the verse





repeat the chorus




Bridge - Both guitars    (x means mute the string or no to play it!)
e|-----------------------------------------|
B|-----------------------------------------|
G|-------------------44---1111-----4/3-6-4-|
D|-2~-5~-2~--55--77--44---2222--5~-x-x-x-x-|
A|-2~-5~-2~--55--77--22---2222--x--2/1-4-2-|
E|-0~-3~-0~--33--55-------------3~---------|


Repeat the chorus and intro thingy... 

Then do this! (outro)
e|---------------------------|
B|---------------------------|
G|-----------------4-4~-4-44-|
D|-5\4-55-5/7-55-5-4-4~-2-22-|
A|-5/4-55-5/7-55-5-2-2--2-22-|
E|-3\2-33-3/5-33-3-----------|







And that is World War III by the Jonas Brothers

100% correct!

Copyright - XxGuitarZer0xX - (me)

Email me corrections... or just comment... don't matter!




            
            
Suggest correction
Creating personal tab
Creating personal tab
You can edit any tab online and save it as your Personal.

You can edit, replace or remove any tab part or add personal notes – all changes will be seen only by you.

Personal tabs can be accessed anytime from any device, even offline.
Learn more »
comments
print report bad tab
guest
You may want to rate the tab now too:
select rating
Wanna post a correction for this tab? Suggest correction