Oops, an error
Loading. Please wait.
We have an official Code Monkey tab made by UG professional guitarists. Check out the tab »
×
3,309 views 1 this week
1 commentread comment
1 2 3 4 5
2 more votes to show rating
add to favorites
×
Save as Personal and add changes to this tab that will be seen only by you. Learn more ›
×
You can save this tab as Personal to edit and correct it or add notes. All changes will be seen only by you. Learn more »
launch autoscroll
font size
0
reset
guitar tuner
backing track
0:00
0:00
edit
Autoscroll
slow
fast
+/-
esc
set tempo
stop
Author
Difficulty
Jonathan doesn't actually use a bass, I just picked mine up while listening to the song 
decided to write a bass-line for the song.

Standard EADG tuning.

                  Begin after the Palm Muted section.

G-----------------------------------------|
D-----------------------------------------|
A-----------------------------------------|
E--9--7-7--5-5----9--7-7--5-5--9-9--7-7---|

G------------------------------|
D------------------------------|
A------------------------------|
E--9--7-7--5-5---9--7-7--5-5---|

"Code Monkey think maybe...."

G----------------------------------------------------------|
D----------------------------------------------------------|
A--12-12--12-11-11--11-9-9--9--14-14-12-11-9-7-------------|
E----------------------------------------------------------|

"Code Monkey not say it..."

G-------------------------|
D------------------7------|
A--7-7-6-6-6-4--4---------|
E-------------------------|

"Code Monkey not crazy..."

G-------------------------|
D------------------9------|
A--9-9-7-7-7-6--6---------|
E-------------------------|

"Code Monkey like FRITOS..." (Enter on fritos) (I find it easy to count the notes here 
mentally saying 1234-1234-1234-1234, rather than counting to 16)

G----------------------------------------------------------------------------|
D----------------------------------------------------------------------------|
A-7777777777777777--4444444444444444--9-9-99-9-9-999--7-7-77--5-5-55---------|
E----------------------------------------------------------------------------|

"Code Monkey Like You..."

G-------------------------------------------------|
D-------------------------------------------------|
A-------------------------------------------------|
E--9--7-7--5-5--9-9--7-7--9--7-7--5-5--9-9--7-7---|


"Code Monkey like youuuuuuuu..."

G---------|
D---------|
A-7(x32)--| (I used the "1234-1234" method to count my notes)
E---------|


G-----------------------------------------|
D-----------------------------------------|
A-----------------------------------------|
E--9--7-7--5-5----9--7-7--5-5--9-9--7-7---| x4

"Code Monkey have long walk...."

G----------------------------------------------------------|
D----------------------------------------------------------|
A--12-12--12-11-11--11-9-9--9--14-14-12-11-9-7-------------|
E----------------------------------------------------------|

"Code Monkey Not thinking..."

G-------------------------|
D------------------7------|
A--7-7-6-6-6-4--4---------|
E-------------------------|

"Code Monkey not feeling..."

G-------------------------|
D------------------9------|
A--9-9-7-7-7-6--6---------|
E-------------------------|


Next is guitar solo (which I haven't come up with anything for yet. Have fun! and enjoy!

            
            
Suggest correction
Creating personal tab
Creating personal tab
You can edit any tab online and save it as your Personal.

You can edit, replace or remove any tab part or add personal notes – all changes will be seen only by you.

Personal tabs can be accessed anytime from any device, even offline.
Learn more »
Give kudos to tab author, rate the tab!
1 2 3 4 5
comments
print report bad tab
1 comment total.
0 reply
linghoejohnson9 1,076 Oct 17, 2009 11:29 AM

works for me man :D

guest
You may want to rate the tab now too:
select rating
Wanna post a correction for this tab? Suggest correction