Oops, an error
Loading. Please wait.

Life Is Strange Soundtrack tab

57,306 views 303 this week
6 commentsread comments
1 2 3 4 5
x 30
add to favorites
×
Save as Personal and add changes to this tab that will be seen only by you. Learn more ›
×
You can save this tab as Personal to edit and correct it or add notes. All changes will be seen only by you. Learn more »
launch autoscroll
font size
0
reset
how to read this tab
guitar tuner
edit
Autoscroll
slow
fast
+/-
esc
set tempo
stop
-------------------------------------------------------------------------------
                        Life is Strange Original Soundtrack - Jonathan Morali
-------------------------------------------------------------------------------

This is only the beginning of a tab, and I would really appreciate your help.
I've managed to get started with the soundtrack to Life is Strange, but I'm only a beginner and it's past
 my difficulty level really. 

You can listen to the soundtrack on YouTube to help you get a feel for the song
(if the video's still up): https://www.youtube.com/watch?v=7cGzJ_L_aK0 
This tab is for the song that plays at the start menu and the pause menu – the first one in the linked video.

The main guitar part repeats the same pattern again and again, on the high e and B strings. 
You change the notes you play but still play the same strings. 
There's also a backing guitar part that I haven't tabbed all of yet. 

Tuning: Standard tuning
Capo: 3rd fret

Main guitar
D major chord pattern

e|--2-----2-----2-----2-----2-----2-----2-----2-----|
B|-----3-----3-----3-----3-----3-----3-----3-----3--|
G|--------------------------------------------------|
D|--------------------------------------------------|
A|--------------------------------------------------|
E|--------------------------------------------------|

D major chord pattern - intro variation

e|--------------------------------------------------|
B|--3-----3-----3-----3-----3-----3-----3-----3-----|
G|-----2-----2-----2-----2-----2-----2-----2-----2--|
D|--------------------------------------------------|
A|--------------------------------------------------|
E|--------------------------------------------------|

In every bar, this pattern of the e and B strings is played 8 times, so there are 16 notes in each bar. 

When the song first fades in, this pattern varies very slightly for one bar.
It then reverts to the usual pattern of the e and B strings for the rest of the song. 

Main guitar
A major chord pattern

e|--0-----0-----0-----0-----0-----0-----0-----0-----|
B|-----2-----2-----2-----2-----2-----2-----2-----2--|
G|--------------------------------------------------|
D|--------------------------------------------------|
A|--------------------------------------------------|
E|--------------------------------------------------|

Main guitar
Bminor chord pattern

e|--2-----2-----2-----2-----2-----2-----2-----2-----|
B|-----3-----3-----3-----3-----3-----3-----3-----3--|
G|--------------------------------------------------|
D|--------------------------------------------------|
A|--------------------------------------------------|
E|--------------------------------------------------|

For the Bminor pattern, the backing chord is different but the pattern is actually the same notes 
as for the D major chord.

Backing guitar
Chorus and bridge

Bm        A     A     D    Bm     A     D   D   Bm     A     A    D     G        G    A     A  
e|--2-----------------------2-----------2--------2---------------------------------------3-----|
B|-----3--2--------------------3--2-----------------3--2-------------------------0-------------|
G|-----------2-----------------------2--------------------2-------------------0-------2-----0--|
D|--------------2-----0--------------------------------------2-----0----0--0-------------------|
A|-----------------4--------------------------------------------4------------------------------|
E|---------------------------------------------------------------------------------------------|

The basic chord pattern of the song is:


[Intro]

D D

[Verse]

D D A D
D D A D

[Chorus]

Bm A A D
Bm A D D

[Verse]

D D A D
D D A D

[Chorus]

Bm A A D
Bm A D D

[Bridge]

Bm A A D
G G A A

And it starts back at the beginning again.

[2:31] Piano part for guitar (without capo)

e|--------------------------------------------------|
B|-6----6----3---5-6----6----6----3---5-6-----------|
G|-------------5--------------------5---------------|
D|--------------------------------------------------|
A|--------------------------------------------------|
E|--------------------------------------------------|

e|-5-------------5----------------------------------|
B|---6-5-----------6-5-----6------------------------|
G|---------------------5----------------------------|
D|-------7-5--3----------7--------------------------|
A|--------------------------------------------------|
E|--------------------------------------------------|

e|---------------------1---1------------------------|
B|---5--5-3-6----------------------3---5-6----------|
G|-5------------0-2--------------5---5-----5--------|
D|------------------3----3-----3-------------3------|
A|--------------------------------------------------|
E|--------------------------------------------------|

e|-5---------------5-----8---------5-----------------------6---|
B|---6-5-------------6-5-------6-----6-5--------------3--------|
G|-------5------------------------------------------3----5-----|
D|---------5---------------7-------------7-5--3--------------8-|
A|-----------7-8-------------8---------------------------------|
E|-------------------------------------------------------------|

e|-------------------------------------------------------------|
B|---6-----------6--------3----------6--6----------3-----5-6---|
G|--5---2-------5---2-------5--------5--5------------5---------|
D|-3------3----3------3-------5---7--3--3--5-7-3-------5-------|
A|-------------------------------------------------------------|
E|-------------------------------------------------------------|

[Outro]
e|--------------------------------------------------|
B|-5-3------6---5-3---5-----------------------------|
G|-----5----5-------5-------------------------------|
D|-------7--3-----------3---------------------------|
A|--------------------------------------------------|
E|--------------------------------------------------|

            
            
Suggest correction
Creating personal tab
Creating personal tab
You can edit any tab online and save it as your Personal.

You can edit, replace or remove any tab part or add personal notes – all changes will be seen only by you.

Personal tabs can be accessed anytime from any device, even offline.
Learn more »
comments
print report bad tab
6 comments total. Showing first comments.
+1 reply
dancresswell 10 Jun 16, 2015 09:39 AM

Really, really good so far. Please keep it up, have been looking for this for a long time!

+2 reply
HenryT97 10 Jul 28, 2015 06:51 AM

This is probably the closest anyone has gotten so far, great job, really hope you keep it up man!

I'm gonna try to work on it a bit myself, and I'll let you know if I can come up with something. Again, great job!

+2 reply
Fferrett 10 Oct 11, 2015 06:06 PM

Keep it up, I'd love to eventually see a full tab on this.

guest
You may want to rate the tab now too:
select rating
Wanna post a correction for this tab? Suggest correction