Oops, an error
Loading. Please wait.

Help Me solo tab

version 1
version 1

Solo

Interactive

289 views 1 this week
no commentswrite comment
1 2 3 4 5
1 last vote to show rating
add to favorites
×
Save as Personal and add changes to this tab that will be seen only by you. Learn more ›
×
You can save this tab as Personal to edit and correct it or add notes. All changes will be seen only by you. Learn more »
launch autoscroll
font size
0
reset
how to read this tab
guitar tuner
backing track
0:00
0:00
edit
Autoscroll
slow
fast
+/-
esc
set tempo
stop
Author
Difficulty
"Help Me" by Joni Mitchell
from Court and Spark (1974)
lead guitar by Larry Carlton
tabbed by Andy Werle

Feel free to share, but please leave my credit attached. Enjoy!

0:37
e|-8--5------------------------------8--------------------|
B|-10-6—6/8\6--6p5-----------6p5--------------------------|
G|------7/9\6-----5--------5-----5------------------------|
D|------------------5h7------------5----------------------|
A|--------------------------------------------------------|
E|--------------------------------------------------------|

1:21
e|----------------13/15--8--5--3--1--0--------------------|
B|------12----10--13/15--10-6--5--3--1--1---------1-------|
G|-9h11----11---------------------------2--0-0-0--2--0----|
D|-----------------------------------------2-2-2-----2----|
A|--------------------------------------------------------|
E|--------------------------------------------------------|

2:46
    DMaj7                         BbMaj7
e|-9--9--9--9--9---9---9--9--9----10-10-10--13/15--10-10-------|
B|-10-10-10-10-10--10--10-10-10---10-10-10--13/15--10---10-----|
G|-11-11-11-11-11--11--11-11-11---10-10-10----------------10---|
D|-------------------------------------------------------------|
A|-------------------------------------------------------------|
E|-------------------------------------------------------------|

     FMaj7           DMaj7                  FMaj7                       
e|-12-12-12--8-8/10---9--9--9--9---5-5/7----8/10\8--5---3/5\3------|
B|-13-13-13--8-8/10---10-10-10-10--5-5/7----8/10\8--5---3/5\3--5---|
G|-12-12-12-----------11-11-11-11------------------------------4---|
D|-----------------------------------------------------------------|
A|-----------------------------------------------------------------|
E|-----------------------------------------------------------------|

  DMaj7                    FMaj7                DMaj7
e|-5/7\5--2---------------8/10\8--8--5----5/7\5/7\5-------|
B|-5/7\5--2---5/7\5--2----8/10\8--8--6----5/7\5/7\5-------|
G|------------4/6\4--2------------------------------------|
D|--------------------------------------------------------|
A|--------------------------------------------------------|
E|------------------------------------------8--------------|

   FMaj7                         DMaj7
e|----------15-15----------------------12----------------|
B|----13-12----13-12--------------10-9------10-----------|
G|-12----------12----------12-------------9----9---------|
D|-------------------12h14-------------------------------|
A|-------------------------------------------------------|
E|-------------------------------------------------------|

   FMaj7                              DMaj7
e|-------15--------15-------------------12---12----12----------|
B|-------12h13p12-------13------------10--9----10-------10-----|
G|----12-------------12-------12----------------------9--------|
D|-14----------------------14----------------------------------|
A|-------------------------------------------------------------|
E|-------------------------------------------------------------|


            
            
Suggest correction
Creating personal tab
Creating personal tab
You can edit any tab online and save it as your Personal.

You can edit, replace or remove any tab part or add personal notes – all changes will be seen only by you.

Personal tabs can be accessed anytime from any device, even offline.
Learn more »
Give kudos to tab author, rate the tab!
1 2 3 4 5
comments
print report bad tab
guest
You may want to rate the tab now too:
select rating
Wanna post a correction for this tab? Suggest correction