Oops, an error
Loading. Please wait.

Woodstock tab

version 1
version 1

Whole song

Interactive

94 views 9 this week
4 commentsread comments
1 2 3 4 5
2 more votes to show rating
add to favorites
×
Save as Personal and add changes to this tab that will be seen only by you. Learn more ›
×
You can save this tab as Personal to edit and correct it or add notes. All changes will be seen only by you. Learn more »
launch autoscroll
font size
0
reset
how to read this tab
guitar tuner
edit
Autoscroll
slow
fast
+/-
esc
set tempo
stop
Author
Difficulty
Artist: Joni Mitchell
Song: Woodstock
Tuning: Drop D down half step - Db Ab Db Gb Bb Eb
tabbed by electricbunny

[Intro]                                                                     
Eb|----------------------------0---|--------------------------------|
Bb|------------------------0-3-----|--------------------------------|
Gb|------------------2-3-----------|----------------0---------------|
Db|--------------------------------|2-------------------------------|
Ab|--------------------------------|--------------------------------|
Db|--------------------------------|--------------------------------|
 
Eb|------------------------3-------|5-------------------------------|
Bb|----0-----------0-------3-------|5-------------------------------|
Gb|--------------------------------|--------------------------------|
Db|----4-----------4---------------|--------------------------------|
Ab|0-----------0-------------------|--------------------------------|
Db|--------------------------------|--------------------------------|
 
Eb|--------------------------------|----------------10----------12--|
Bb|----0-----------0-------8-------|10------12------12------12------|
Gb|------------------------7-------|9-------12----------------------|
Db|----4-----------4---------------|--------------------------------|
Ab|0-----------0-------------------|--------------------------------|
Db|--------------------------------|--------------------------------|
 
Eb|--------------------------3-5---|------------------------0-------|
Bb|------------------3-2---5-------|--------0-------3---------------|
Gb|--------------------------------|2-------------------------------|
Db|--------------------------------|--------------------------------|
Ab|--------------------------------|--------------------------------|
Db|--------------------------------|--------------------------------|
 
Eb|--------------------------------|--------------------------------|
Bb|--------------------------------|0---------------3---------------|
Gb|--------------------------------|0---------------2---------------|
Db|2-------------------------------|--------------------------------|
Ab|2-------------------------------|--------------------------------|
Db|2-------------------------------|--------------------------------|
 
Eb|0-------------------------------|--------------------------------|
Bb|0-------------------------------|--------------------------------|
Gb|--------------------------------|--------------------------------|
Db|--------------------------------|2-------------------------------|
Ab|--------------------------------|2-------------------------------|
Db|--------------------------------|2-------------------------------|
 
Eb|--------------------------------|0-------------------------------|
Bb|0---------------3---------------|0---------------0-------3-------|
Gb|0---------------2---------------|----------------0-------2-------|
Db|--------------------------------|--------2---------------2-------|
Ab|--------------------------------|----2-------2-------2-------2---|
Db|--------------------------------|2---------------2---------------|
 
Eb|0-------------------------------|0-------------------------------|
Bb|0---------------0-------3-------|0---------------0---------------|
Gb|----------------0-------2-------|----------------0---------------|
Db|--------2---------------2-------|--------2---------------2-------|
Ab|----2-------2-------2-------2---|----2-------2-------2-------2---|
Db|2---------------2---------------|2---------------2---------------|
 
Eb|--------------------------------|--------------------------------|
Bb|3-------------------------------|--------------------------------|
Gb|2-------------------------------|--------------------------------|
Db|--------2---------------2-------|--------2---------------2-------|
Ab|----2-------2-------2-------2---|----2-------2-------2-------2---|
Db|2---------------2---------------|2---------------2---------------|
 
[Verse]                                                                     
Eb|----------------------------0---|--------------------------------|
Bb|0-----------3---------------0---|------------3-------------------|
Gb|0-----------2---0---------------|------------2---------------2---|
Db|--------2---------------2-------|--------2---------------2-------|
Ab|----2-------2-------2-------2---|----2-------2-------2-----------|
Db|2---------------2---------------|2---------------2---------------|
 
Eb|------------3---------------0---|10----------10------------------|
Bb|------------3-----------0-------|--------------------------------|
Gb|--------2-----------------------|--------------------------------|
Db|----2---------------2-----------|--------7---------------9-------|
Ab|0---------------0---------------|----7---------------7-------7---|
Db|--------------------------------|7---------------7---------------|
 
Eb|3-----------3---------------0---|------------10------------------|
Bb|3-----------3-----------0-------|----------------------------8---|
Gb|--------2-----------------------|----------------------------7---|
Db|----2---------------2-----------|--------7---------------9-------|
Ab|0---------------0---------------|----7---------------7-----------|
Db|--------------------------------|7---------------7---------------|
 
Eb|--------------------------------|0-----------0-------------------|
Bb|------------0-----------3-------|0-----------0-------------------|
Gb|------------0-----------2-------|----------------------------2---|
Db|--------2-----------------------|--------2-------2-------2-------|
Ab|----2-------2-------2-------2---|----2---------------2-----------|
Db|2---------------2---------------|2-------------------------------|
 
Eb|--------------------------------|----------------------------0---|
Bb|3-----------0-------3-----------|0-----------3---------------0---|
Gb|2-----------0-------2-----------|0-----------2---0---------------|
Db|--------2---------------2-------|--------2---------------2-------|
Ab|----2---------------2-------2---|----2-------2-------2-------2---|
Db|2---------------2---------------|2---------------2---------------|
 
Eb|--------------------------------|------------3---------------0---|
Bb|------------3-------------------|------------3-----------0-------|
Gb|------------2---------------2---|2-------2-----------------------|
Db|--------2---------------2-------|----2---------------2-----------|
Ab|----2-------2-------2-----------|0---------------0---------------|
Db|2---------------2---------------|--------------------------------|
 
Eb|10----------10------------------|3-----------3---------------0---|
Bb|--------------------------------|3-----------3-----------0-------|
Gb|--------------------------------|--------2-----------------------|
Db|--------7---------------9-------|----2---------------2-----------|
Ab|----7---------------7-------7---|0---------------0---------------|
Db|7---------------7---------------|--------------------------------|
 
Eb|------------10------------------|--------------------------------|
Bb|----------------------------8---|------------0-----------3-------|
Gb|----------------------------7---|------------0-----------2-------|
Db|--------7---------------9-------|--------2-----------------------|
Ab|----7---------------7-----------|----2-------2-------2-------2---|
Db|7---------------7---------------|2---------------2---------------|
 
Eb|0-----------0-------------------|--------------------------------|
Bb|0-----------0-------------------|3-------------------------------|
Gb|----------------------------2---|2-------------------------------|
Db|--------2-------2-------2-------|--------2-----------------------|
Ab|----2---------------2-----------|----2---------------------------|
Db|2-------------------------------|2-------------------------------|
 
[Chorus]                                                                     
Eb|3-----------3---------------0---|10------------------------------|
Bb|3-----------3-----------0-------|--------------------------------|
Gb|--------2-----------------------|--------------------------------|
Db|----2---------------2-----------|--------7---------------9-------|
Ab|0---------------0---------------|----7-------7-------7-------7---|
Db|--------------------------------|7---------------7---------------|
 
Eb|3-----------3---------------0---|----0---------------------------|
Bb|3-----------3-----------0-------|--------0---3---0---------------|
Gb|--------2-----------------------|------------------------2-------|
Db|----2-------2-------2-----------|----2---------------2-------2---|
Ab|0---------------0---------------|0---------------0---------------|
Db|--------------------------------|--------------------------------|
 
Eb|10------------------------------|3-------0-----------------------|
Bb|--------------------------------|------------0-------3-----------|
Gb|------------7-------9-------7---|------------0-------2-------0---|
Db|--------7---------------9-------|--------2---------------2-------|
Ab|----7---------------------------|----2-------2-------2-----------|
Db|7---------------7---------------|2---------------2---------------|
 
Eb|--------------------------------|3-------------------0-----------|
Bb|--------------------------------|--------0---3-----------0---3---|
Gb|------------2-------------------|----0---------------0-----------|
Db|--------0---2---------------0---|--------------------------------|
Ab|----0---------------0-----------|2---------------2---------------|
Db|0---------------0---------------|--------------------------------|
 
Eb|5---3---------------------------|0-------------------------------|
Bb|--------5-----------3-----------|------------0-----------3-------|
Gb|--------2---4-----------2---4---|------------0-----------2-------|
Db|----2---------------2-----------|--------2---------------2-------|
Ab|--------------------------------|----2-------2-------2-------2---|
Db|7-------------------------------|2---------------2---------------|
 
Eb|0---------------0---------------|--------------------------------|
Bb|0---------------0---------------|3-------------------------------|
Gb|----------------------------2---|--------------------------------|
Db|--------2---------------2-------|--------2---------------2-------|
Ab|----2-------2-------2-----------|----2---------------2-------2---|
Db|2---------------2---------------|2---------------2---------------|
 
                                   [Verse]                                  
Eb|--------------------------------|----------------------------0---|
Bb|--------------------------------|0-----------3---------------0---|
Gb|--------------------------------|0-----------2---0---------------|
Db|--------2---------------2-------|--------2---------------2-------|
Ab|----2---------------2-------2---|----2-------2-------2-------2---|
Db|2---------------2---------------|2---------------2---------------|
 
Eb|--------------------------------|------------3---------------0---|
Bb|------------3-------------------|------------3-----------0-------|
Gb|------------2---------------2---|--------2-----------------------|
Db|--------2---------------2-------|----2---------------2-----------|
Ab|----2-------2-------2-----------|0---------------0---------------|
Db|2---------------2---------------|--------------------------------|
 
Eb|10----------10------------------|3-----------3---------------0---|
Bb|--------------------------------|3-----------3-----------0-------|
Gb|--------------------------------|--------2-----------------------|
Db|--------7---------------9-------|----2---------------2-----------|
Ab|----7---------------7-------7---|0---------------0---------------|
Db|7---------------7---------------|--------------------------------|
 
Eb|------------10------------------|--------------------------------|
Bb|----------------------------8---|------------0-----------3-------|
Gb|----------------------------7---|------------0-----------2-------|
Db|--------7---------------9-------|--------2-----------------------|
Ab|----7---------------7-----------|----2-------2-------2-------2---|
Db|7---------------7---------------|2---------------2---------------|
 
Eb|0-----------0-------------------|--------------------------------|
Bb|0-----------0-------------------|3-----------0-------3-----------|
Gb|----------------------------2---|2-----------0-------2-----------|
Db|--------2-------2-------2-------|--------2---------------2-------|
Ab|----2---------------2-----------|----2---------------2-------2---|
Db|2-------------------------------|2---------------2---------------|
 
Eb|----------------------------0---|--------------------------------|
Bb|0-----------3---------------0---|------------3-------------------|
Gb|0-----------2---0---------------|------------2---------------2---|
Db|--------2---------------2-------|--------2---------------2-------|
Ab|----2-------2-------2-------2---|----2-------2-------2-----------|
Db|2---------------2---------------|2---------------2---------------|
 
Eb|------------3---------------0---|10----------10------------------|
Bb|------------3-----------0-------|--------------------------------|
Gb|2-------2-----------------------|--------------------------------|
Db|----2---------------2-----------|--------7---------------9-------|
Ab|0---------------0---------------|----7---------------7-------7---|
Db|--------------------------------|7---------------7---------------|
 
Eb|3-----------3---------------0---|------------10------------------|
Bb|3-----------3-----------0-------|----------------------------8---|
Gb|--------2-----------------------|----------------------------7---|
Db|----2---------------2-----------|--------7---------------9-------|
Ab|0---------------0---------------|----7---------------7-----------|
Db|--------------------------------|7---------------7---------------|
 
Eb|--------------------------------|0-----------0-------------------|
Bb|------------0-----------3-------|0-----------0-------------------|
Gb|------------0-----------2-------|----------------------------2---|
Db|--------2-----------------------|--------2-------2-------2-------|
Ab|----2-------2-------2-------2---|----2---------------2-----------|
Db|2---------------2---------------|2-------------------------------|
 
                                   [Chorus]                                  
Eb|--------------------------------|3-----------3---------------0---|
Bb|3-------------------------------|3-----------3-----------0-------|
Gb|2-------------------------------|--------2-----------------------|
Db|--------2-----------------------|----2---------------2-----------|
Ab|----2---------------------------|0---------------0---------------|
Db|2-------------------------------|--------------------------------|
 
Eb|10------------------------------|3-----------3---------------0---|
Bb|--------------------------------|3-----------3-----------0-------|
Gb|--------------------------------|--------2-----------------------|
Db|--------7---------------9-------|----2-------2-------2-----------|
Ab|----7-------7-------7-------7---|0---------------0---------------|
Db|7---------------7---------------|--------------------------------|
 
Eb|----0---------------------------|10------------------------------|
Bb|--------0---3---0---------------|--------------------------------|
Gb|------------------------2-------|------------7-------9-------7---|
Db|----2---------------2-------2---|--------7---------------9-------|
Ab|0---------------0---------------|----7---------------------------|
Db|--------------------------------|7---------------7---------------|
 
Eb|3-------0-----------------------|--------------------------------|
Bb|------------0-------3-----------|--------------------------------|
Gb|------------0-------2-------0---|------------2-------------------|
Db|--------2---------------2-------|--------0---2---------------0---|
Ab|----2-------2-------2-----------|----0---------------0-----------|
Db|2---------------2---------------|0---------------0---------------|
 
Eb|3-------------------0-----------|5---3---------------------------|
Bb|--------0---3-----------0---3---|--------5-----------3-----------|
Gb|----0---------------0-----------|--------2---4-----------2---4---|
Db|--------------------------------|----2---------------2-----------|
Ab|2---------------2---------------|--------------------------------|
Db|--------------------------------|7-------------------------------|
 
Eb|0-------------------------------|0---------------0---------------|
Bb|------------0-----------3-------|0---------------0---------------|
Gb|------------0-----------2-------|----------------------------2---|
Db|--------2---------------2-------|--------2---------------2-------|
Ab|----2-------2-------2-------2---|----2-------2-------2-----------|
Db|2---------------2---------------|2---------------2---------------|
 
Eb|--------------------------------|--------------------------------|
Bb|3-------------------------------|--------------------------------|
Gb|--------------------------------|--------------------------------|
Db|--------2---------------2-------|--------2---------------2-------|
Ab|----2---------------2-------2---|----2---------------2-------2---|
Db|2---------------2---------------|2---------------2---------------|
 
Eb|----------------------------0---|--------------------------------|
Bb|0-----------3---------------0---|------------3-------------------|
Gb|0-----------2---0---------------|------------2---------------2---|
Db|--------2---------------2-------|--------2---------------2-------|
Ab|----2-------2-------2-------2---|----2-------2-------2-----------|
Db|2---------------2---------------|2---------------2---------------|
 
[Verse]                                                                     
Eb|------------3---------------0---|10----------10------------------|
Bb|------------3-----------0-------|--------------------------------|
Gb|--------2-----------------------|--------------------------------|
Db|----2---------------2-----------|--------7---------------9-------|
Ab|0---------------0---------------|----7---------------7-------7---|
Db|--------------------------------|7---------------7---------------|
 
Eb|3-----------3---------------0---|------------10------------------|
Bb|3-----------3-----------0-------|----------------------------8---|
Gb|--------2-----------------------|----------------------------7---|
Db|----2---------------2-----------|--------7---------------9-------|
Ab|0---------------0---------------|----7---------------7-----------|
Db|--------------------------------|7---------------7---------------|
 
Eb|--------------------------------|0-----------0-------------------|
Bb|------------0-----------3-------|0-----------0-------------------|
Gb|------------0-----------2-------|----------------------------2---|
Db|--------2-----------------------|--------2-------2-------2-------|
Ab|----2-------2-------2-------2---|----2---------------2-----------|
Db|2---------------2---------------|2-------------------------------|
 
Eb|--------------------------------|----------------------------0---|
Bb|3-----------0-------3-----------|0-----------3---------------0---|
Gb|2-----------0-------2-----------|0-----------2---0---------------|
Db|--------2---------------2-------|--------2---------------2-------|
Ab|----2---------------2-------2---|----2-------2-------2-------2---|
Db|2---------------2---------------|2---------------2---------------|
 
Eb|--------------------------------|------------3---------------0---|
Bb|------------3-------------------|------------3-----------0-------|
Gb|------------2---------------2---|2-------2-----------------------|
Db|--------2---------------2-------|----2---------------2-----------|
Ab|----2-------2-------2-----------|0---------------0---------------|
Db|2---------------2---------------|--------------------------------|
 
Eb|10----------10------------------|3-----------3---------------0---|
Bb|--------------------------------|3-----------3-----------0-------|
Gb|--------------------------------|--------2-----------------------|
Db|--------7---------------9-------|----2---------------2-----------|
Ab|----7---------------7-------7---|0---------------0---------------|
Db|7---------------7---------------|--------------------------------|
 
Eb|------------10------------------|--------------------------------|
Bb|----------------------------8---|------------0-----------3-------|
Gb|----------------------------7---|------------0-----------2-------|
Db|--------7---------------9-------|--------2-----------------------|
Ab|----7---------------7-----------|----2-------2-------2-------2---|
Db|7---------------7---------------|2---------------2---------------|
 
Eb|0-----------0-------------------|--------0-----------------------|
Bb|0-----------0-------------------|3-------------------------------|
Gb|----------------------------2---|--------------------------------|
Db|--------2-------2-------2-------|--------2-----------------------|
Ab|----2---------------2-----------|----2---------------------------|
Db|2-------------------------------|2-------------------------------|
 
[Chorus]                                                                     
Eb|3-----------3---------------0---|10------------------------------|
Bb|3-----------3-----------0-------|--------------------------------|
Gb|--------2-----------------------|--------------------------------|
Db|----2---------------2-----------|--------7---------------7-------|
Ab|0---------------0---------------|----7-------7-------7-------7---|
Db|--------------------------------|7---------------7---------------|
 
Eb|--------------------------------|----0---------------------------|
Bb|8-----------10------------------|--------0---3---0---------------|
Gb|7-----------9---------------7---|------------------------2-------|
Db|--------7---------------7-------|----2---------------2-------2---|
Ab|----7---------------7-----------|0---------------0---------------|
Db|7---------------7---------------|--------------------------------|
 
Eb|--------------------------------|--------------------------------|
Bb|10--------------10----------12--|12------------------------------|
Gb|9---------------9-----------12--|12------------------------------|
Db|--------------------------------|--------------------------------|
Ab|0-------12------0-------12------|0-------12------0-------12------|
Db|----14------14------14------14--|----14------14------14------14--|
 
Eb|----------------7---5-----------|0-------3---------------0-------|
Bb|----5---------------------------|----------------3---------------|
Gb|7-------4---7-------------------|----2---2---------------2-------|
Db|--------------------------------|------------2-------2-----------|
Ab|----------------------------7---|0---------------0---------------|
Db|7---------------7---------------|--------------------------------|
 
Eb|--------------------------------|--------------------------------|
Bb|------------0-------3-----------|----------------------------3---|
Gb|------------0-------2-------0---|------------2-------------------|
Db|--------2---------------2-------|--------0---2-----------0-------|
Ab|----2-------2-------2-----------|----0---------------0-----------|
Db|2---------------2---------------|0---------------0---------------|
 
Eb|------------0-------------------|3---------------3---------------|
Bb|------------0---------------3---|----------------3---------------|
Gb|--------0---------------2-------|--------------------------------|
Db|----0---------------0-----------|--------2---------------2-------|
Ab|--------------------------------|----2-------2-------2-------2---|
Db|5---------------5---------------|2---------------2---------------|
 
Eb|3-------3-------3-------3-------|3-------3-------3-------3-------|
Bb|3-------3-------3-------3-------|3-------3-------3-------3-------|
Gb|--------------------------------|--------------------------------|
Db|--------2---------------2-------|--------2---------------2-------|
Ab|----2-------2-------2-------2---|----2-------2-------2-------2---|
Db|2---------------2---------------|2---------------2---------------|
 
Eb|3---------------0---3---0-------|7-------------------------------|
Bb|3-------0---3---0-------0---3---|----------------------------5---|
Gb|--------------------------------|------------6-------7-----------|
Db|----0---------------------------|--------7---------------7-------|
Ab|2-------------------------------|----7---------------7-----------|
Db|--------------------------------|7---------------7---------------|
 
Eb|--------------------------------|--------------------------------|
Bb|--------------------------------|0-------------------------------|
Gb|----------------0---2-----------|--------------------------------|
Db|--------2---4-------------------|--------2---------------2-------|
Ab|----2-----------------------2---|----2-------2-------2-------2---|
Db|2-------------------------------|2---------------2---------------|
 
[Outro]                                                                     
Eb|--------------------------------|--------------------------------|
Bb|0---------------0-----------3---|------------0-------------------|
Gb|0---------------0-----------2---|------------0---------------2---|
Db|--------2---------------2-------|--------2---------------2-------|
Ab|----2-------2-------2-----------|----2-------2-------2-----------|
Db|2---------------2---------------|2---------------2---------------|
 
Eb|--------------------3-------0---|--------------------------------|
Bb|------------3-----------0-------|----------------0---3-------0---|
Gb|2-------2-----------------------|2-----------------------2-------|
Db|----2---------------------------|--------------------------------|
Ab|0---------------0---------------|0-------------------------------|
Db|--------------------------------|--------------------------------|
 
Eb|3-------------------------------|------------0-------------------|
Bb|----------------0-----------3---|------------0---------------3---|
Gb|----------------0-----------2---|----------------------------2---|
Db|--------2---------------2-------|--------2---------------2-------|
Ab|----2-------2-------2-------2---|----2---------------2-----------|
Db|2---------------2---------------|2---------------2---------------|
 
Eb|--------------------0-----------|--------------------------------|
Bb|------------3-----------0---2---|--------3-------------------3---|
Gb|--------2-----------------------|--------------------2-----------|
Db|----2---------------------------|----------------2---------------|
Ab|0---------------0---------------|0-----------0-------------------|
Db|--------------------------------|--------------------------------|
 
Eb|--------------------10------7---|--------------------------------|
Bb|10------------------------------|------------2-----------0---3---|
Gb|----------------9-------7-------|--------2-----------------------|
Db|--------9-----------------------|----2---------------------------|
Ab|----10--------------------------|0---------------0---------------|
Db|9-------------------9-----------|--------------------------------|
 
Eb|----------------10----------7---|--------------------------------|
Bb|----------------------------8---|------------3---------------3---|
Gb|7-----------9-----------7-------|--------2---------------2-------|
Db|--------9-----------9-----------|----2---------------2-----------|
Ab|----10--------------------------|0---------------0---------------|
Db|9-------------------------------|--------------------------------|
 
Eb|--------0-----------------------|----------------0---------------|
Bb|------------0-------------------|3-----------0---------------3---|
Gb|------------0---------------2---|--------0-----------------------|
Db|------------2-----------2-------|------------------------2-------|
Ab|----2---------------2-----------|----2---------------2-----------|
Db|2---------------2---------------|2---------------2---------------|
 
Eb|3---------------5-----------3---|7-------------------------------|
Bb|------------5-------------------|5-------------------------------|
Gb|--------------------------------|--------------------------------|
Db|--------2---------------2-------|--------------------------------|
Ab|----2---------------2-----------|--------7---------------7-------|
Db|2---------------2---------------|----9-------9---2-----------9---|
 
Eb|----------------------------0---|--------------------------------|
Bb|------------------------0-3-----|--------------------------------|
Gb|--------2-------3---------------|----------------0---------------|
Db|--------------------------------|2-------------------------------|
Ab|--------------------------------|--------------------------------|
Db|--------------------------------|--------------------------------|
 
Eb|----0-----------0-------3-------|--------7-------10--------------|
Bb|----0-----------0-------3-------|10------8-------10--------------|
Gb|--------------------------------|9-------------------------------|
Db|2-----------2-------------------|--------------------------------|
Ab|0-----------0-------------------|--------------------------------|
Db|--------------------------------|--------------------------------|
 
Eb|12------------------------------|
Bb|12------------------------------|
Gb|11------------------------------|
Db|--------------------------------|
Ab|--------------------------------|
Db|--------------------------------|

            
            
Suggest correction
Creating personal tab
Creating personal tab
You can edit any tab online and save it as your Personal.

You can edit, replace or remove any tab part or add personal notes – all changes will be seen only by you.

Personal tabs can be accessed anytime from any device, even offline.
Learn more »
Give kudos to tab author, rate the tab!
1 2 3 4 5
comments
print report bad tab
4 comments total. Showing first comments.
0 reply
Skipsguy 10 Jul 13, 2017 05:24 PM

Sixth string is tuned to Db or D#?

+1 reply
electricbunny 6,131 Jul 13, 2017 05:35 PM

Skipsguy , Db..Starting from standard tuning tune the Low E string down 1 and half steps then the rest of the strings down half step.

0 reply
Skipsguy 10 Jul 13, 2017 05:39 PM

It shows D# in the header for first and sixth strings.

guest
You may want to rate the tab now too:
select rating
Wanna post a correction for this tab? Suggest correction