Oops, an error
Loading. Please wait.

I Still Feel Her Part 3 bass

version 1
version 1

Whole song

Interactive

5,191 views 3 this week
2 commentsread comments
1 2 3 4 5
x 3
add to favorites
×
Save as Personal and add changes to this tab that will be seen only by you. Learn more ›
×
You can save this tab as Personal to edit and correct it or add notes. All changes will be seen only by you. Learn more »
launch autoscroll
font size
0
reset
guitar tuner
edit
Autoscroll
slow
fast
+/-
esc
set tempo
stop
Author
Jonny Craig : I Still Feel Her (Pt. III)
Tabbed by   : Hariz Abdul Hadi (twitter.com/CubaTryTest)
Tunning     : Standard (EADG)

!--------------------------------------------------!
| A great song by one of the great vocals alive.   |
| Jonny Craig with I Still Feel Her Pt. III.       |
| This song is pretty easy to play on the bass.    |
| Pretty tricky at first, practice makes perfect.  |
|                                                  |
| This tab is ear-transcribe and done all by self. |
| So I can assure you its 99% accurate.            |
!--------------------------------------------------!

[INTRO/VERSE]x2

G|--------------------|
D|--------------------|
A|-77-555-7-9-10------|
E|--------------------|

G|--------------------|
D|-------------999----|
A|-9-10-777-10--------|
E|--------------------|

G|--------------------|
D|--------------------|
A|-77-555-7-9-10------|
E|--------------------|

G|--------------------|
D|-7/10-10-7-9--------|
A|-------------10-9-7-|
E|--------------------|

[RIFF/PRE-CHORUS]

G|----------------------------|
D|----------------------------|
A|-77777777-10101010-12121212-|
E|----------------------------|

G|----------------------------|
D|----------------------------|
A|-77777777-12121212-14141414-|
E|----------------------------|

Repeat: [INTRO/VERSE] and [RIFF/PRE-CHORUS]

[CHORUS]

G|--------------------------------------------------------|
D|--------------------------------------------------------|
A|-77777777----------------------------------7--------9-7-|
E|----------88888888-1010101010101010-7-8-10---7-8-10-----|

G|------------------------------------------|
D|------------------------------------------|
A|-77777777-33333333-55555555-10101010-9999-|
E|------------------------------------------|

Repeat: [INTRO/VERSE], [RIFF/PRE-CHORUS] and [CHORUS]x2

[BRIDGE]

G|----------------------------------|x4
D|----------------------------------|
A|-7-777-77-5-5/10-10-999-----------|
E|----------------------------------|

G|----------------------------------|
D|----------------------------------|
A|-7-777-77-5-555-55-7-12-12/141414-|
E|----------------------------------|

Repeat [CHORUS]x2

-End-

            
            
Suggest correction
Creating personal tab
Creating personal tab
You can edit any tab online and save it as your Personal.

You can edit, replace or remove any tab part or add personal notes – all changes will be seen only by you.

Personal tabs can be accessed anytime from any device, even offline.
Learn more »
Give kudos to tab author, rate the tab!
1 2 3 4 5
comments
print report bad tab
2 comments total.
0 reply
poisonedbananar 10 Feb 01, 2010 07:01 PM

Guitar tab??? :)

0 reply
hariz05 682 Jul 28, 2010 09:00 AM

The guitar is quite difficult for me.

guest
You may want to rate the tab now too:
select rating
Wanna post a correction for this tab? Suggest correction