Oops, an error
Loading. Please wait.

Open Spaces tab

163 views 1 this week
no commentswrite comment
1 2 3 4 5
3 more votes to show rating
add to favorites
×
Save as Personal and add changes to this tab that will be seen only by you. Learn more ›
×
You can save this tab as Personal to edit and correct it or add notes. All changes will be seen only by you. Learn more »
launch autoscroll
font size
0
reset
how to read this tab
guitar tuner
edit
Autoscroll
slow
fast
+/-
esc
set tempo
stop
Jonny Greenwood
"Open Spaces" from There Will Be Blood

Obviously, it's played by a string section, but you can simulate the glissando effect on guitar by either 
sliding or bending (if you're brave). Hoping to work out more of Greenwood's orchestral work soon. 

Be sure to dig into the slides (or bends) and make them very deliberate to get the desired effect.
Each line is restricted to one string to give a sense of which note are held, etc.  

e|----------------|----------------|7-----//10~-----|----------------|
B|----------------|----------------|8-----//10~-----|----------------|
G|----------------|----------------|7-----//10~-----|----------------|
D|0-----//7~------|----------------|----------------|----------------|
A|----------------|----------------|----------------|----------------|
D|0-----//7~------|----------------|----------------|----------------|

e|----------------|----------------|7-----//10~-----|----------------|
B|----------------|----------------|8-----//10~-----|----------------|
G|----------------|----------------|7-----//10~-----|----------------|
D|0-----//7~------|----------------|----------------|----------------|
A|----------------|----------------|----------------|----------------|
D|0-----//7~------|----------------|----------------|----------------|

e|----------------|----------------|7-----//10~-----|------10/11-7/6-|
B|----------------|----------------|8-----//10~~~~~~|~~~~~~~~~~~~~~~~| keep holding note
G|----------------|----------------|7-----//10~-----|----------------|
D|0-----//7~------|----------------|----------------|----------------|
A|----------------|----------------|----------------|----------------|
D|0-----//7~------|----------------|----------------|----------------|

e|13~-------------|11~-----10~-----|----------------|
B|~~~~~~~~~~~~~~~~|9~~~~~~~~~~~8~~~|~~~~~~~~~~~~~~~~|
G|----------------|----------------|----------------|
D|----------------|----------------|----------------|
A|5/4-7/8---2-----|----------------|----------------|
D|----------------|----------------|----------------|

e|----------------|----------------|7-----//10~-----|----------------|
B|----------------|----------------|8-----//10~~~~~~|~~~~~~~~~~~~~~~~|
G|----------------|----------------|7-----//10~-----|----------------|
D|0-----//7~------|----------------|----------------|----------------|
A|----------------|----------------|----------------|----------------|
D|0-----//7~------|----------------|----------------|----------------|

e|----------------|----------------|----------------|----------------|
B|(10)------------|----------------|9~~~~~~~~~~~~~~~|8~~~~~~~~~~~~~~~|
G|--------------10|13/12-15/16-10--|7~~~~~~~~~~~~~~~|~~~~~~~~~~~~~~~~|
D|----------------|----------------|----------------|----------------|
A|----------------|----------------|----------------|----------------|
D|6/7-4/3---9-----|----------------|----------------|----------------|

e|----------------|----------------|7-----//10~-----|------10/11--7/6|
B|----------------|----------------|8-----//10~~~~~~|~~~~~~~~~~~~~~~~|
G|----------------|----------------|7-----//10~-----|----------------|
D|0-----//7~------|----------------|----------------|----------------|
A|----------------|----------------|----------------|----------------|
D|0-----//7~------|----------------|----------------|----------------|

e|13~-------------|11~-----10~-----|----------------|
B|~~~~~~~~~~~~~~~~|9~~~~~~~~~~~8~~~|~~~~~~~~~~~~~~~~|
G|----------------|----------------|----------------|
D|----------------|----------------|----------------|
A|5/4-7/8---2-----|----------------|----------------|
D|----------------|----------------|----------------|

e|----------------|----------------|13----//16~-----|----------------|
B|----------------|----------------|14----//16~~~~~~|~~~~~~~~~~~~~~~~|
G|----------------|----------------|13----//16~-----|----------------|
D|6-----//13~-----|----------------|----------------|----------------|
A|----------------|----------------|----------------|----------------|
D|6-----//13~-----|----------------|----------------|----------------|

e|----16/17-13/12-|19~-------------|17------16------|
B|~~~~~~~~~~~~~~~~|~~~~~~~~~~~~~~~~|15~~~~~~~~~14~~~|
G|----------------|----------------|----------------|
D|6/5-8-/9--11/12-|14/15-12~-------|11----9--8------|
A|----------------|----------------|----------------|
D|----------------|----------------|----------------|

e|----------------|----------------|13----//16~~~~~~|~~~~~~~~~~~~~~~~|
B|----------------|----------------|14----//16~~~~~~|~~~~~~~~~~~~~~~~|
G|----------------|----------------|13----//16~~~~~~|~~~~~~~~~~~~~~~~|
D|6-----//13~-----|----------------|----------------|----------------|
A|----------------|----------------|----------------|----------------|
D|6-----//13~-----|----------------|----------------|----------------|

e|~~~~~~~~~~~~~~~~|~~~~~~~~~~~~~~~~|~~~~~~~~~~~~~~~~|~~~~~~~~~~~~~~~~|
B|~~~~~~~~~~~~~~~~|~~~~~~~~~~~~~~~~|~~~~~~~~~~~~~~~~|~~~~~~~~~~~~~~~~|
G|~~~~~~~~~~~~~~~~|~~~~~~~~~~~~~~~~|~~~~~~~~~~~~~~~~|~~~~~~~~~~~~~~~~|
D|6-----//13~-----|----------------|----------------|----------------|
A|----------------|----------------|----------------|----------------|
D|6-----//13~-----|----------------|----------------|----------------|



************************************

| (n)  Ghost note
| /    Slide up
| ~    Vibrato/Hold the note

************************************

            
            
Suggest correction
Creating personal tab
Creating personal tab
You can edit any tab online and save it as your Personal.

You can edit, replace or remove any tab part or add personal notes – all changes will be seen only by you.

Personal tabs can be accessed anytime from any device, even offline.
Learn more »
Give kudos to tab author, rate the tab!
1 2 3 4 5
comments
print report bad tab
guest
You may want to rate the tab now too:
select rating
Wanna post a correction for this tab? Suggest correction