Oops, an error
Loading. Please wait.

Hesitation Blues bass

version 1
version 1

Whole song

Interactive

2,864 views 9 this week
no commentswrite comment
1 2 3 4 5
2 more votes to show rating
add to favorites
×
Save as Personal and add changes to this tab that will be seen only by you. Learn more ›
×
You can save this tab as Personal to edit and correct it or add notes. All changes will be seen only by you. Learn more »
launch autoscroll
font size
0
reset
guitar tuner
edit
Autoscroll
slow
fast
+/-
esc
set tempo
stop
Author
"Hesitation Blues" - Jorma Kaukonen

Intro:                 F to Fm
|-------5-------7-|x4 |-----5-----5---5-----5-----5---5-|x1
|-----7-------6---|   |---7-----7---------6-----6-------|
|---7-------7-----|   |-8-----8-----8---8-----8-----8---|
|-5-------0-------|   |---------------------------------|

C:             A:             D:                    G:
|----------|x1 |----------|x1 |-------|-7-5-4---|x1 |---------|---------|x1
|---2-3-5--|   |----------|   |--4-5-7|-------5-|   |---5-3---|---------|
|-3--------|   |---4-5-7--|   |-5-----|---------|   |-------5-|--0-2-5--|
|----------|   |-5--------|   |-------|---------|   |-3-------|3--------|

and repeat as many times as necessary.

ok, sorry for the confusing structure, but ill try to explain how this works.
the intro that you play four times goes under the guitar, as with the F to Fm.
the C A D and G parts you can improvise with the C and A being one measure and D and G 
two,
although the second measure of the G (that i've tabbed out) is the same as what the 
does at that time.
once again, sorry for the messy tab, but hopefully you get the idea of it.

            
            
Suggest correction
Creating personal tab
Creating personal tab
You can edit any tab online and save it as your Personal.

You can edit, replace or remove any tab part or add personal notes – all changes will be seen only by you.

Personal tabs can be accessed anytime from any device, even offline.
Learn more »
Give kudos to tab author, rate the tab!
1 2 3 4 5
comments
print report bad tab
guest
You may want to rate the tab now too:
select rating
Wanna post a correction for this tab? Suggest correction