Oops, an error
Loading. Please wait.

Honey And The Moon tab

version 4
version 4

Whole song

Interactive

61,638 views 45 this week
4 commentsread comments
1 2 3 4 5
x 24
add to favorites
×
Save as Personal and add changes to this tab that will be seen only by you. Learn more ›
×
You can save this tab as Personal to edit and correct it or add notes. All changes will be seen only by you. Learn more »
launch autoscroll
font size
0
reset
how to read this tab
guitar tuner
edit
Autoscroll
slow
fast
+/-
esc
set tempo
stop
Author
Honey And The Moon by Joseph Arthur
===================================

Tabbed by Umesh Bhalsod


This is a true to sound version of the song, more complex than the current tabs
available, but better sounding and more accurate. 

ENJOY! 

NOTE:  experiment with hammer-ons and pull-offs for a fuller sound.

[Standard Tuning]

[Capo on the 7th fret]

[INTRO & VERSE ]
=============

         C                 G/B             F            G

e|----------------|-------------|-------------|-------------|
B|--------------1-|-----------3-|-----------1-|-----------0-|
G|--------------0-|-----------0-|-----------2-|-----------0-|
D|---------0h2----|----0---0----|--------3----|--------0----|
A|-------3--------|--2---2------|----0--------|----2--------|
E|----------------|-------------|--1---1------|--3---3------|


         Am               Am               Em              Em

e|-------------------|--0----------|-----------------|---------------|
B|------------0h1----|-------------|---------------0-|---------------|
G|------------2------|--------0h2--|---------------0-|---------------|
D|-----2---2---------|------2------|-----------2-----|-------0h2p0---|
A|---0---0--------0--|----0--------|----2---2--------|-----2-------3-|
E|-------------------|-------------|--0---0------0---|-0-------------|


PLAY ONCE FOR INTRO, TWICE FOR EACH VERSE.

CHORUS
======

(only play bracketed notes on repeat)

        F              G              C             Em   

e|-----------------|-------------|---------------|----------------|
B|---------------1-|-----------0-|------------1--|-------------0--|
G|---------------2-|-----------0-|------------0--|-------------0--|
D|------------3----|--------0----|---0---0h2-----|---------0h2----| x 2
A|------(0)--------|----2--------|-3---3---------|----2-----------|
E|--(1)-----1------|--3---3------|---------------|--0---0---------|
       

        Am               Am

e|------------------|--0-------------|
B|------------0H1---|----------------|
G|----------------2-|--------0H2-----|
D|-----2---2--------|------2---------|  x 2
A|---0---0----------|----0-----------|
E|------------------|----------------|
   

        Em             Em

e|----------------|------------|
B|-------------0--|------------|
G|-------------0--|------------|
D|-----------2----|-------0H2--|  x 2
A|-----2---2------|-----2------|
E|---0---0--------|-0----------|
     

        G                G

e|------------------|------------|
B|---------------0--|------------|
G|---------------0--|------------|
D|-------------0----|---------0--|  x 2
A|----0---0H2-------|----0H2-----|
E|--3---3-----------|-0----------|



************************************

| h    Hammer-on
| p    Pull-off
| (n)  Ghost note   

************************************

            
            
Suggest correction
Creating personal tab
Creating personal tab
You can edit any tab online and save it as your Personal.

You can edit, replace or remove any tab part or add personal notes – all changes will be seen only by you.

Personal tabs can be accessed anytime from any device, even offline.
Learn more »
comments
print report bad tab
4 comments total. Showing first comments.
+2 reply
oXygEn_WaSteR 308 Jul 18, 2006 01:22 PM

wrong intro buddy...

-------------------------------------------------0-----------
-------1--------3---------1---------0-------0h1--------------
-------0--------0---------2---------0-------2---------0h2----
---0h2-----2--0-----0----------------------2---------2---2---
-3-------3--2-----2-----0-----0----2---2-0------0--0-------0-
----------------------1-----1----3----3----------------------

---------------------
--------0------------
--------0----0-------
----2------2-0h2p0---
---2--2---2--------3-
-0-------------------

pretty sure my version is right... idk...

+1 reply
CrazyYaz 725 Oct 11, 2006 10:22 AM

umm its isnt quite right at the end but its defintely more precise. this is a goot tab anyway

+1 reply
cocol 63 Apr 23, 2010 01:53 AM

Nice tab.

FYI, the live version is with the capo on the 5th fret.

guest
You may want to rate the tab now too:
select rating
Wanna post a correction for this tab? Suggest correction