Oops, an error
Loading. Please wait.

Autumn Leaves tab

version 1
version 1

Whole song

Interactive

15,492 views 33 this week
1 commentread comment
1 2 3 4 5
x 5
add to favorites
×
Save as Personal and add changes to this tab that will be seen only by you. Learn more ›
×
You can save this tab as Personal to edit and correct it or add notes. All changes will be seen only by you. Learn more »
launch autoscroll
font size
0
reset
how to read this tab
guitar tuner
backing track
0:00
0:00
edit
Autoscroll
slow
fast
+/-
esc
set tempo
stop
Author
Autumn Leaves by Joseph Kosmun/Johnny Mercer/Jacques Prevert


I’m pretty sure it is completely correct.  If you try listening to the song and find it 
different, chances are you’re listening to a different rendition, such as the Miles 
version in which he kind of messes around with to make his own.
Enjoi.  Viva la jazz.


Chord Diagrams:
  A-7 D7 Gmaj7 Cmaj7 F#-7b5 B7 E-  B7b9 E-7  A7 D-7------| G7
e|5--x---3-----x-----2------x--0---x----x----5--x---3----|
B|x--5---x-----3-----x------1--2---2----7----x--5---x----|
G|5--7---4-----5-----2------3--2---1----9----5--7---3----|
D|5--5---4-----4-----2------1--0---2----7----6--5---4----|
A|5--7---3-----5-----1------3--0---1----8----5--6---3----|
E|x--x---x-----x-----x------x--0---x----x----x--x---x----|


Chord Progression:

A-7     D7      Gmaj7
Cmaj7   F#-7b5  B7     E-
E-      B7      E-     E-
F#-7b5  B7b9    E-     E-
A-7     D7      Gmaj7  Gmaj7
F#-7b5  B7b9    E-7 A7 D-7 G7
F#-7b5  B7b9    E-

Head:

e|-------8--------7-7--------3--------3---|
B|-5-7-8------5-7--------3-5--------4-----|
G|----------7----------5--------4-6-------|
D|----------------------------------------|
A|----------------------------------------|
E|----------------------------------------|


e|-------8--------7-7--------3-------------|
B|-5-7-8------5-7--------3-5----7-10-8-----|
G|----------7----------5---------------9---|
D|-----------------------------------------|
A|-----------------------------------------|
E|-----------------------------------------|

e|---------------------------5-----10-8-7---|
B|-----7---7-7---7-8---8-7-8----------------|
G|-8-9---------9-----------------7----------|
D|-------9----------------------------------|
A|------------------------------------------|
E|------------------------------------------|


e|-6-7-8-8-5-5----8-7-7---0-5--------------|
B|-------------7--------------8-7--8-------|
G|-------------------------------------9---|
D|-----------------------------------9-----|
A|-----------------------------------------|
E|-----------------------------------------|

            
            
Suggest correction
Creating personal tab
Creating personal tab
You can edit any tab online and save it as your Personal.

You can edit, replace or remove any tab part or add personal notes – all changes will be seen only by you.

Personal tabs can be accessed anytime from any device, even offline.
Learn more »
comments
print report bad tab
1 comment total.
0 reply
rizky_yuditya 10 Mar 19, 2016 12:20 AM

What scale you used?

guest
You may want to rate the tab now too:
select rating
Wanna post a correction for this tab? Suggest correction