Oops, an error
Loading. Please wait.

Goldmines chords

version 2
version 2

Whole song

1,768 views 3 this week
2 commentsread comments
1 2 3 4 5
x 4
add to favorites
×
Save as Personal and add changes to this tab that will be seen only by you. Learn more ›
×
You can save this tab as Personal to edit and correct it or add notes. All changes will be seen only by you. Learn more »
launch autoscroll
font size
0
reset
transpose
0
reset
simplify chords
display chords
guitar tuner
edit
Autoscroll
slow
fast
+/-
esc
set tempo
stop
Author
Strumming
There is no strumming pattern for this song yet. and get +5 IQ
-----------------------------------------------------------------------------
                             GOLDMINES - Josh Pyke
-----------------------------------------------------------------------------
Tabbed by: nickhgill

NB: This song has a few funny sounding chords, but is very easy to play. Just be 
sure to look at the chords I've put up in regards to how to play them as opposed 
to the diagrams that pop up when you scroll over their names.
Without trying to sound like a jerk, this is hopefully much more accurate and 
complete version of the song than the one currently available.


CHORDS USED:
Am(add9)    x07500
G6          355430
Dm          x57765
E5          x799xx
C5          x355xx
F5          133xxx
D5          x577xx
Bb5         x133xx
A5          x022xx
Aadd9       x07600

After the intro, the three chords in the verse just repeat.

p=pull off
h=hammer on

INTRO
e|-------------------0-----------------------------------------------------|
B|------------8-----------0----0-----0-----0-------------------------------|
G|----5p0-------------------------5-----5----------------------------------|
D|---------7-----7------7----7---------------------------------------------|
A|-0-----------------------------------------------------------------------|
E|-------------------------------------------------------------------------|


Verse
Am(add9)        
Dark night, it's a dark night. 
G6                                Dm
And you can feel it, out with the big cats. 
And there's a jaw trap, and there's a razor net. 
And it's a dark night, 
so paint your necks red, 
so we can see you. 

Vastness, there's a vastness, 
and it looks empty, 
but it's really full up to the brim. 
And you can taste it, 
like a battery on your tongue, 
electricity passing particle, to particle, to particle. 

Chorus
F                               
And I’m gonna need some proof, 
Am                      G
I'm gonna need some proof, 
                                 Dm
so set your traps right before I lay my money out for you. 

Verse
Decision or indecision, 
is it safer to stay in the light where I can see them? 
But there was nothing there, but you could feel the hum
And it could core you like an apple kid, or burn you 'til you turn to dust

Chorus


(play arpeggios for the bridge. When it reaches the A chord, it strums through A7, then A)

Bridge 
E5               C5
Buzz saw in the ears for days 
        A5                     F5
And there's only so much a man can take 
D       Bb5                            A
before crack, crack, crack, cracking in. 

Verse
Car ride, we'll take a car ride, out to the country, to see the goldmines 
See where that hill ends? 
That's where it all began, and it was teeming then, 
now it's a fucking wasteland, and it's such a waste man. 

Chorus

(Finish with bridge, then Aadd9)

            
            
Suggest correction
Creating personal tab
Creating personal tab
You can edit any tab online and save it as your Personal.

You can edit, replace or remove any tab part or add personal notes – all changes will be seen only by you.

Personal tabs can be accessed anytime from any device, even offline.
Learn more »
comments
print report bad tab
2 comments total.
0 reply
mr.speaker 30 Dec 13, 2011 10:05 PM

I'm 80% possitive this is the correct rhythem and 100% sure it's the right notes. You had a 9 on the B string where it should have been an 8

INTRO
e|-----------------0-------------------------------------------------------|
B|------------8---------0--0--0--------------------------------------------|
G|----5p0-----------------5--5---------------------------------------------|
D|---------7-----7----7----------------------------------------------------|
A|-0-----------------------------------------------------------------------|
E|-------------------------------------------------------------------------|

0 reply
nickhgill 149 Feb 08, 2013 12:14 AM

Nice pick up mr.speaker. Spot on, sorry about the typo. Thanks.

guest
You may want to rate the tab now too:
select rating
Wanna post a correction for this tab? Suggest correction