Oops, an error
Loading. Please wait.

Lighthouse Song tab

version 2
version 2

Whole song

41,389 views 27 this week
5 commentsread comments
1 2 3 4 5
x 29
add to favorites
×
Save as Personal and add changes to this tab that will be seen only by you. Learn more ›
×
You can save this tab as Personal to edit and correct it or add notes. All changes will be seen only by you. Learn more »
launch autoscroll
font size
0
reset
how to read this tab
guitar tuner
edit
Autoscroll
slow
fast
+/-
esc
set tempo
stop
----------------------------------------------------------------------------
                             The Lighthouse Song - Josh Pyke
----------------------------------------------------------------------------
Tabbed by: Breno
Email: brennansmart@hotmail.com

Tuning: Standard

PLEASE RATE!!!

Heya
only my second tab, so i hope it sounds alright
this song is actually meant to be in drop D, but its probably easier to
play in standard


Intro and verse:
e|--------------------------------------------------------------------|
B|----1---1---1---1---1---1---1---1--------1-------1-------1-------1--|
G|------------------0------------------2-------2-------2-------2------|
D|------0---2---3-------3---2---0-------------------------------------|
A|--3--------------------------------3---3---3---3---3---3---3---3----|
E|--------------------------------------------------------------------|


Chorus:
        F                     Am              G(Bar)         F
e|-----------------------------------------------------------------------|
B|--------1-------1---------1-------1--------3-------3---------1-------1-|
G|----2-------2---------2-------2--------4-------4---------2-------2-----|
D|-----------------------------------------------------------------------|
A|--------------------0---0---0---0--------------------------------------|
E|--1---1---1---1----------------------3---3---3---3-----1---1---1---1---|

        F                     Am              G(Bar)         F
e|------------------------------------------------------------------------|
B|--------1-------1---------1-------1--------3-------3----------6-------6-|
G|----2-------2---------2-------2--------4-------4---------7--------7-----|
D|------------------------------------------------------------------------|
A|--------------------0---0---0---0----------------------5----5-------5---|
E|--1---1---1---1----------------------3---3---3---3----------------------|

        F                     Am              G(Bar)
e|-----------------------------------------------------|
B|--------1-------1---------1-------1--------3-------3-|
G|----2-------2---------2-------2--------4-------4-----|
D|-----------------------------------------------------|
A|--------------------0---0---0---0--------------------|
E|--1---1---1---1----------------------3---3---3---3---|

    "....wind....."
e|---------------------------------------|
B|--------6-------6--------6-------6-----|
G|----7-------7--------7-------7---------|
D|---------------------------------------|
A|--5---5---5---5----5---5---5---5-------|
E|---------------------------------------|
     "ill just hold you tight..."                   \/ Repeat 4 times\/
e|--------------------------------------------------|-------------------|
B|----1---1---1---1---1---1---1---1---1---1---1---1-|-------1-----------|
G|------------------0-------------------------------|---0-------0-----0-|
D|------0---2---3-------3---2---0---2---3---2---0---|-------------0h2---|
A|--3-----------------------------------------------|-3---3---3---------|
E|--------------------------------------------------|-------------------|


Verse 2:
Same as intro and verse 1

Chorus 2:
Same as Chorus 1

Finish with this instead though:
e|-----------------------------------------|
B|---------1------------------1-------0----|
G|-----0-------0-----0----0-------0--------|
D|---------------0h2-----------------------|
A|---3---3--------------3---3---2---2------|
E|-----------------------------------------|


Bridge:

I'll anull these little walls of attrition and these invocations
      Am                  G(bar)          C                  C/B     C
e|------------------------------------------------------------------------|
B|--------1--------1--------3-------3----------1------1---------1--------1|
G|----2--------2---------4------4----------0------0---------0--------0----|
D|------------------------------------------------------------------------|
A|--0---0--------0-----------------------3---3------3-----2---2----3---3--|
E|---------------------3---3-------3--------------------------------------|

That's seen me holding my camera out at arms length To self-document these new locations
      Am                  G(bar)          chord name?     Dm
e|------------------------------------------------------------------------|
B|--------1--------1--------3-------3----------5------5---------6------6--|
G|----2--------2---------4------4----------5------5---------7------7------|
D|------------------------------------------------------------------------|
A|--0---0--------0-----------------------3---3------3-----5---5------5----|
E|---------------------3---3-------3--------------------------------------|

When I should be leaning against you Deciding on things to get done
       Am                              G(Bar)
e|------------------------------------------------------------------------|
B|---------1--------1-------1---------------3------3------3------3--------|
G|-----2--------2-------2------2--------4------4------4------4------------|
D|------------------------------------------------------------------------|
A|---0---0--------0-------0------0----------------------------------------|
E|------------------------------------3---3------3------3------3----------|

And you should be leaning on fountains
And filling my space up and breathing the air
e|-----------------------------------------------------------------|
B|--------1------1--------1------1--------3------3-----------------|
G|----2------2--------2------2--------4------4---------------------|
D|-----------------------------------------------------------------|
A|--0---0------0----0---0------0-----------------------------------|
E|----------------------------------3---3------3-------------------|

from my lungs
e|-----------------------------------------------------------------|
B|---------6------6------6-----6----------1------1-----1-----------|
G|-----7------7------7------7---------0------0-----0-----0---------|
D|-----------------------------------------------------------------|
A|---5---5------5------5-----5------3---3------3-----3-----3-------|
E|-----------------------------------------------------------------|

e|----------------------------------------------------------------|
B|----1---1----------1---1---1---1---1---1---1---1---1---1---1----|
G|-----------------------------0----------------------------------|
D|------0---2------0---2---3-------3---2---0---2---3---2---0------|
A|--3-------------------------------------------------------------|
E|----------------------------------------------------------------|

Leads into...

Chorus 3:
Same as other choruses, just longerer
End with a C Chord

End

     "ill just hold you tight..."
e|-------------------------------------------------------|
B|----1---1---1---1---1---1---1---1---1---1---1---1---1--|
G|------------------0---------------------------------0--|
D|------0---2---3------3---2---0---2---3---2---0------2--|
A|--3-------------------------------------------------3--|
E|-------------------------------------------------------|

end  :)

            
            
Suggest correction
Creating personal tab
Creating personal tab
You can edit any tab online and save it as your Personal.

You can edit, replace or remove any tab part or add personal notes – all changes will be seen only by you.

Personal tabs can be accessed anytime from any device, even offline.
Learn more »
comments
print report bad tab
5 comments total. Showing first comments.
0 reply
bobo2711 10 Nov 11, 2008 03:18 AM

great job on the tab but i think the chord progression in the Chorus goes:
F(Bar),Am,G(Bar),F(Bar)
F(Bar),Am,G(Bar),Dm(Bar)
F(Bar),Am,G(Bar),Dm(Bar)
The second Dm being the 'the wind' part.
i think the first Dm part is:
e|------------------
B|-------6----------
G|---7-------7------
D|---------------7--
A|-5---5---5---5----
E|------------------

or sumthin like that. im not sure on the bridge either =P

0 reply
Josh54 10 Mar 27, 2009 01:45 PM

Yea this is an awesome tab, thanks!
I think the last not on bobo's correction should be a 0 on G.
I listened carefully and that sounds right
e|------------------
B|-------6----------
G|---7-------7---0--
D|------------------
A|-5---5---5---5----
E|------------------

0 reply
aj2nelson 10 Apr 08, 2009 05:25 AM

Makes chord progression much easier if you drop D and rather than bar 1st play 3rd on E on move up the feret board in an Am position

guest
You may want to rate the tab now too:
select rating
Wanna post a correction for this tab? Suggest correction