Oops, an error
Loading. Please wait.

Make You Happy tab

version 2
version 2

Whole song

2,000 views 3 this week
1 commentread comment
1 2 3 4 5
2 more votes to show rating
add to favorites
×
Save as Personal and add changes to this tab that will be seen only by you. Learn more ›
×
You can save this tab as Personal to edit and correct it or add notes. All changes will be seen only by you. Learn more »
launch autoscroll
font size
0
reset
how to read this tab
guitar tuner
edit
Autoscroll
slow
fast
+/-
esc
set tempo
stop
Author
Hey, this took me a fair bit longer to figure 
out than it should have; my excuse is going to 
be that "it's my first day." Figure out strumming 
patterns by listening and playing along and it'll 
make sense. Enjoy!

Capo First Fret.

Intro(play through twice) & Verse: 
E|-0--0--0--0--0--0--0--0--|-0---------------0-------0-----|
B|-1--1--1--1--1--1--1--1--|-3---------------5-------3-----|
G|-0--2--0--2--0--2--0--2--|-0---------------0-------0-----|
D|-2--0--2--0--2--0--2--2--|-4---------------0-------4-----|
A|-3--3--3--3--3--3--3--3--|-5---------------7-------5-----|
E|-3--2--3--2--3--2--3--3--|-5---------------7-------5-----|

Chorus:
E|-0-------0-------0-------0-------0----0----0----0|
B|-1-------1-------1-------3-------1----1----1----1|
G|-0-------2-------0-------0-------2----0----2----0|
D|-2-------2-------2-------4-------2----2----2----2|
A|-3-------0-------3-------5-------0----3----0----3|
E|-3-------0-------3-------5-------0----3----0----3|

E|-0--0--0--0--0|-0----0----0--|
B|-1--1--1--1--1|-5----3----1--|
G|-2--0--2--0--2|-0----0----0--|
D|-0--2--0--2--0|-0----4----2--|
A|-3--3--3--3--3|-7----5----3--|
E|-2--3--2--3--2|-7----5----3--|

Outro:
E|-0-------0-------0-------0-------0-------0-------|
B|-1-------1-------5-------3-------0-------1-------|
G|-0-------2-------0-------0-------0-------0-------|
D|-2-------2-------0-------4-------2-------2-------|
A|-3-------0-------7-------5-------2-------3-------|
E|-3-------0-------7-------5-------0-------3-------|

E|-0--0--0--0--0--0|--0--0--0--0--0|-0--0--0--0--0|-0--0--0----|
B|-1--1--1--1--1--1|--1--1--1--1--1|-1--1--1--1--1|-1--1--1----|
G|-2--0--2--0--2--0|--0--2--0--2--0|-0--2--0--2--0|-0--2--0----|
D|-0--2--0--2--0--2|--2--2--2--2--2|-2--2--2--2--2|-2--0--2----|
A|-3--3--3--3--3--3|--3--0--3--0--3|-3--0--3--0--3|-3--3--3----|
E|-2--3--2--3--2--3|--3--0--3--0--3|-3--0--3--0--3|-3--2--3----|

E|-0----0----0----|
B|-5----3----1----|
G|-0----0----0----|
D|-0----4----2----|
A|-7----5----3----|
E|-7----5----3----|


LYRICS

[Verse]
Every now and then
I get a little too close
To a kind of truth that's not worth thinking about
But you can't stop the mind from wandering
You've gotta slow it down
Maybe get yourself under control

[Verse]
And it's hard to stop the pondering
And there have been points when
I feel like I've been on a roll
But then those curtains get drawn
And the chances that you thought you had
They really come to nothing at all

[Chorus]
And I have no need
For such things
But to make you happy
Does it make you happy?
And I've busted strings on this guitar
Makes me feel like I'm getting nowhere
Could you make me happy?
And if you keep me on your right
Could I keep you on my left?

[Verse]
And there's a question on your lips
On your finger tips
Stabbing in the dark
Like you're cut, cut,
Cutting your fringe back
But it's grown out at such an angle
That the shears aren't sharp
You've got to straight, straight,
Straighten the blades up

[Verse]
And if I could make it easier
I would always try to make it easier
But to be a cautious operator
Is the way to
Stop this falling apart

[Chorus]
And I have no need
For such things
But to make you happy
Does it make you happy?
And I've busted strings on this guitar
Makes me feel like I'm getting nowhere
Could you make me happy?

[Outro]
And I have no need
For such things
But to make you happy
Make you happy
Does it make you happy?
Does it make you happy?
And if you keep me on your right
Could I keep you on my left?

            
            
Suggest correction
Creating personal tab
Creating personal tab
You can edit any tab online and save it as your Personal.

You can edit, replace or remove any tab part or add personal notes – all changes will be seen only by you.

Personal tabs can be accessed anytime from any device, even offline.
Learn more »
Give kudos to tab author, rate the tab!
1 2 3 4 5
comments
print report bad tab
1 comment total.
0 reply
SeanisMcgaunis 37 Jul 26, 2009 02:24 AM

i think this sounds better

Intro
Drop D
Capo 1st Fret

E|--0--0--|--0---X---0-|
B|--1--1--|--3---5---3-|
G|--2--0--|--4---5---4-|
D|--0--2--|--0---5---0-|
A|--3--3--|--5---7---5-|
D|--3--2--|--5---7---5-|

Chorus:

E--0---0---0---0---2---0---0---0--0--|
B--1---1---1---3---3---1---1---1--1--|
G--2---0---2---4---2---0---2---2--0--|
D--0---2---2---0---0---2---2---0--2--|
A--3---3---0---5---0---3---0---3--3--|
D--3---0---0---5---0---0---0---3--2--|

guest
You may want to rate the tab now too:
select rating
Wanna post a correction for this tab? Suggest correction