Oops, an error
Loading. Please wait.

Sew My Name tab

version 1
version 1

Whole song

5,907 views 1 this week
1 commentread comment
1 2 3 4 5
1 last vote to show rating
add to favorites
×
Save as Personal and add changes to this tab that will be seen only by you. Learn more ›
×
You can save this tab as Personal to edit and correct it or add notes. All changes will be seen only by you. Learn more »
launch autoscroll
font size
0
reset
how to read this tab
guitar tuner
edit
Autoscroll
slow
fast
+/-
esc
set tempo
stop
----------------------------------------------------------------------------
                             Sew My Name - Josh Pyke
----------------------------------------------------------------------------
Tabbed by: Breno
Email: brennansmart@hotmail.com

Tuning:Drop D
the reason im saying drop D although you dont need the top e for the intro, is that josh 
songs are always written in drop d, and i plan to tab the rest of the song sometime 
   : )
hope you enjoy

please, please rate!
If youre super lazy, you can put a capo on 7th

e|-------9-------7-----------------------------|
B|--------------------9------9-----7-9-7-------|
G|---9-9-----9-9----9----9-9-----9--------9----|
D|---------------------------------------------|
A|---------------------------------------------|
D|---------------------------------------------|


Thats all ive got so far, but ill tab the chords up soon    :)

            
            
Suggest correction
Creating personal tab
Creating personal tab
You can edit any tab online and save it as your Personal.

You can edit, replace or remove any tab part or add personal notes – all changes will be seen only by you.

Personal tabs can be accessed anytime from any device, even offline.
Learn more »
Give kudos to tab author, rate the tab!
1 2 3 4 5
comments
print report bad tab
1 comment total.
0 reply
ilovefins 10 Aug 26, 2009 02:15 PM

I think its more like this

---8-7-------------
-------------------
-8------8-8-6-8-6-8
-------------------
-------------------
-------------------

but thanks heaps for the help

guest
You may want to rate the tab now too:
select rating
Wanna post a correction for this tab? Suggest correction