Oops, an error
Loading. Please wait.

Jersey Clowns tab

version 1
version 1

Whole song

2,338 views 1 this week
4 commentsread comments
1 2 3 4 5
x 4
add to favorites
×
Save as Personal and add changes to this tab that will be seen only by you. Learn more ›
×
You can save this tab as Personal to edit and correct it or add notes. All changes will be seen only by you. Learn more »
launch autoscroll
font size
0
reset
how to read this tab
guitar tuner
edit
Autoscroll
slow
fast
+/-
esc
set tempo
stop
Author
Difficulty
i have only figured out the intro and the pre-i am almost comepletely sure it is 100%
it is my first tab,  dont rip it up. please rate. if there is anything wrong e-mail me 
awaking_the_madness@hotmail.com.enjoy!!

                                    intro
e----------------------------------------------------------------------------|
b----------------------------------------------------------------------------|
g----------------------------------------------------------------------------|
d------4-0-------4-0--------4-0--------4-0-------4-0------4-0--------4-0-----|
a--55-------44---------22---------00-----------------------------------------|
e--------------------------------------------33-------22--------00-------000-|

e--------------------------------------------------------------------------|
b--------------------------0-----------------------------------------------|
g----------------------------2-------2-------------------------------------|
d------4-0-------4-0-------------------4------4-0-----4-0------4-0---------|
a--55-------44--------22--------00-----------------------------------------|
e------------------------------------------33------22------55-------5555---|

                                  verse
e--------------------------------------------------------------------------|
b--------------------------------------------------------------------------|
g--------------------------------------------------------------------------|
d------4-0------4-0-------4-0-------4-0-------4-0------4-0-------4-0-------|
a--55-------44-------22--------00------------------------------------------|
e-----------------------------------------33-------22-------00--------000--|

e----------------------------------------------------------------------|
b------------------------0---------------------------------------------|
g--------------------------2-------2-----------------------------------|
d------4-0------4-0------------------4------4-0------4-0------4-0------|  X2
a--55-------44-------22--------00--------------------------------------|
e---------------------------------------33-------22-------55------5555-|

                              pre-chorus
e-------------------------------------------------------------|
b-------------------------------------------------------------|
g--------7-9--------------------------------------------------|
d---00--------7-4-0-------------4-7-0------44-----------4-7-0-|    X3
a--------------------0-2----55---------55----------55---------|
e---------------------------------------------3---------------|


 sorry. i havent figured out the chorus yet, but i will submit it as soon as i do.

            
            
Suggest correction
Creating personal tab
Creating personal tab
You can edit any tab online and save it as your Personal.

You can edit, replace or remove any tab part or add personal notes – all changes will be seen only by you.

Personal tabs can be accessed anytime from any device, even offline.
Learn more »
comments
print report bad tab
4 comments total. Showing first comments.
0 reply
yonni_man 131 Jul 25, 2006 05:39 AM

Great stuff good luck with the rest!

0 reply
krouser114 10 Aug 08, 2006 07:41 AM

great tab!! this is almost perfect!!

0 reply
joshrouse_rocks 10 Aug 08, 2006 07:49 AM

great song. i hope you can figure out the rest.

guest
You may want to rate the tab now too:
select rating
Wanna post a correction for this tab? Suggest correction