Oops, an error
Loading. Please wait.

Miracle tab

1,087 views 1 this week
no commentswrite comment
1 2 3 4 5
x 3
add to favorites
×
Save as Personal and add changes to this tab that will be seen only by you. Learn more ›
×
You can save this tab as Personal to edit and correct it or add notes. All changes will be seen only by you. Learn more »
launch autoscroll
font size
0
reset
how to read this tab
guitar tuner
edit
Autoscroll
slow
fast
+/-
esc
set tempo
stop
Author
Difficulty
-------------------------------------------------------------------------------
                             Miracle - Josh Rouse
-------------------------------------------------------------------------------
Tabbed by: Brad Bolman
Email: Mageball24@kc.rr.com

Tuning: Standard

*Notes: There are two guitars in the beginning, one playing chords, one playing the solo.

INTRO:

Solo Guitar (4x)
e|-1---1---------------------------------------------------------------------|
B|---2---2-------------------------------------------------------------------|
G|---------1-3---------------------------------------------------------------|
D|---------------------------------------------------------------------------|
A|---------------------------------------------------------------------------|
E|---------------------------------------------------------------------------|

Chords Guitar (These are the chords, listen to find the pattern. Each chord gets 
until one of those little solo bits finishes.)
e|-2--2--2--2-----------------------------------------------------------------|
B|-4--2--4--2-----------------------------------------------------------------|
G|-4--3--4--3-----------------------------------------------------------------|
D|-4--4--4--4-----------------------------------------------------------------|
A|-2--4--2--4-----------------------------------------------------------------|
E|-2--2--2--2-----------------------------------------------------------------|

INTRO PART 2:

Solo Guitar (4x)
e|-1---1---------------------------------------------------------------------|
B|---2---2-------------------------------------------------------------------|
G|---------1-3---------------------------------------------------------------|
D|---------------------------------------------------------------------------|
A|---------------------------------------------------------------------------|
E|---------------------------------------------------------------------------|

Vox/Keyboard
e|-6-7-9--14-9-7--6-7-9--14-9-6--6-7-9--14-9-7--6-7-9--14-9-6--6-7-9-~2------|
B|---------------------------------------------------------------------------|
G|---------------------------------------------------------------------------|
D|---------------------------------------------------------------------------|
A|---------------------------------------------------------------------------|
E|---------------------------------------------------------------------------|

Chords Guitar (Exact Same Thing as Previous)
e|-2--2--2--2-----------------------------------------------------------------|
B|-4--2--4--2-----------------------------------------------------------------|
G|-4--3--4--3-----------------------------------------------------------------|
D|-4--4--4--4-----------------------------------------------------------------|
A|-2--4--2--4-----------------------------------------------------------------|
E|-2--2--2--2-----------------------------------------------------------------|

VERSE:

Chords Guitar (Same Pattern)
e|-2--2--2--2-----------------------------------------------------------------|
B|-4--2--4--2-----------------------------------------------------------------|
G|-4--3--4--3-----------------------------------------------------------------|
D|-4--4--4--4-----------------------------------------------------------------|
A|-2--4--2--4-----------------------------------------------------------------|
E|-2--2--2--2-----------------------------------------------------------------|

Solo Guitar (After, “be there soon” once the words start up again” Play until “It’s a miracle”)
e|--4--6--4-6-4-6------------------------------------------------------------|
B|---------------------------------------------------------------------------|
G|---------------------------------------------------------------------------|
D|---------------------------------------------------------------------------|
A|---------------------------------------------------------------------------|
E|---------------------------------------------------------------------------|

CHORUS:

Chords Guitar (Those are the chords, strum each a couple times) (x2)
e|--2--6----------------------------------------------------------------------|
B|--4--4----------------------------------------------------------------------|
G|--4--4----------------------------------------------------------------------|
D|--4--4----------------------------------------------------------------------|
A|--2--6----------------------------------------------------------------------|
E|--2--6----------------------------------------------------------------------|

CHORUS OUTRO:

Solo Guitar (4x)
e|-1---1---------------------------------------------------------------------|
B|---2---2-------------------------------------------------------------------|
G|---------1-3---------------------------------------------------------------|
D|---------------------------------------------------------------------------|
A|---------------------------------------------------------------------------|
E|---------------------------------------------------------------------------|

Vox/Keyboard
e|-6-7-9--14-9-7--6-7-9--14-9-6--6-7-9--14-9-7--6-7-9--14-9-6--6-7-9-~2------|
B|---------------------------------------------------------------------------|
G|---------------------------------------------------------------------------|
D|---------------------------------------------------------------------------|
A|---------------------------------------------------------------------------|
E|---------------------------------------------------------------------------|

VERSE:

Chords Guitar (Same Pattern)
e|-2--2--2--2-----------------------------------------------------------------|
B|-4--2--4--2-----------------------------------------------------------------|
G|-4--3--4--3-----------------------------------------------------------------|
D|-4--4--4--4-----------------------------------------------------------------|
A|-2--4--2--4-----------------------------------------------------------------|
E|-2--2--2--2-----------------------------------------------------------------|

Solo Guitar (After, “be there soon” once the words start up again” Play until “It’s a miracle”)
e|--4--6--4-6-4-6------------------------------------------------------------|
B|---------------------------------------------------------------------------|
G|---------------------------------------------------------------------------|
D|---------------------------------------------------------------------------|
A|---------------------------------------------------------------------------|
E|---------------------------------------------------------------------------|

CHORUS:

Chords Guitar (Those are the chords, strum each a couple times) (x2)
e|--2--6----------------------------------------------------------------------|
B|--4--4----------------------------------------------------------------------|
G|--4--4----------------------------------------------------------------------|
D|--4--4----------------------------------------------------------------------|
A|--2--6----------------------------------------------------------------------|
E|--2--6----------------------------------------------------------------------|

BRIDGE:

Chords Guitar (Those are the chords, strum each a couple times)
e|--2--2--6--2----------------------------------------------------------------|
B|--4--2--4--2----------------------------------------------------------------|
G|--4--3--6--3----------------------------------------------------------------|
D|--4--4--4--4----------------------------------------------------------------|
A|--2--4--6--4----------------------------------------------------------------|
E|--2--2-----2----------------------------------------------------------------|

Back to Chorus, Then Verse

| /  slide up
| \  slide down
| h  hammer-on
| p  pull-off
| ~  vibrato
| +  harmonic
| x  Mute note
===============================================================================

            
            
Suggest correction
Creating personal tab
Creating personal tab
You can edit any tab online and save it as your Personal.

You can edit, replace or remove any tab part or add personal notes – all changes will be seen only by you.

Personal tabs can be accessed anytime from any device, even offline.
Learn more »
Give kudos to tab author, rate the tab!
1 2 3 4 5
comments
print report bad tab
guest
You may want to rate the tab now too:
select rating
Wanna post a correction for this tab? Suggest correction