Oops, an error
Loading. Please wait.

Love At First Sight tab

7,630 views 3 this week
3 commentsread comments
1 2 3 4 5
2 more votes to show rating
add to favorites
×
Save as Personal and add changes to this tab that will be seen only by you. Learn more ›
×
You can save this tab as Personal to edit and correct it or add notes. All changes will be seen only by you. Learn more »
launch autoscroll
font size
0
reset
how to read this tab
guitar tuner
edit
Autoscroll
slow
fast
+/-
esc
set tempo
stop
Difficulty
intermediate
Tuning: Standard
Mute: x


Intro
e|-------------------------------------|
B|------2-2-----4-2------7-5-----7-7--5|
G|------1-1-----2-2------7-7-----7-7--7|
D|------2-2-----2-2------7-7-----6-6---|
A|----0--------------------------7-7--7|
E|------------2---2----7---7-----------|

1st verse
e|------------------------|
B|---2-------------------2|  Listen to the song for strumming/picking.
G|---2------2------4-----2| 
D|---2------1------4-----2|
A|----------2------5------|
E|------------------------|

Palms are shaking...

e|--------------------------|
B|-----------------5------7-|
G|---2------2------5------7-|
D|---2------1------3------6-|
A|---x------2------5------7-|
E|---2----------------------|


Bridge

e|---5-----5-----|---7----8-----|
B|---5-----5-----|---7----8---7-|
G|---7-----6-----|---9---10---7-|
D|---7-----7-----|---9---10---6-|
A|---x-----7-----|---x----x---7-|
E|---7-----5-----|---9---10-----|


I got this from Josh's youtube tutorial video for this song.
Here's the link to it : http://youtube.com/watch?v=YH6LqSDO1nI


This is also my first tab ever so if i messed up here and there, so take it easy on me ;-)

Hope you guys get this song. Happy playing =]


            
            
Suggest correction
Creating personal tab
Creating personal tab
You can edit any tab online and save it as your Personal.

You can edit, replace or remove any tab part or add personal notes – all changes will be seen only by you.

Personal tabs can be accessed anytime from any device, even offline.
Learn more »
Give kudos to tab author, rate the tab!
1 2 3 4 5
comments
print report bad tab
3 comments total.
0 reply
Utot 20 Feb 23, 2009 09:42 AM

i think a micro mistake- 1st verse 3rd chord. should be xx545x ?
same as the second chord but just slid up i believe.

0 reply
xDkenDx 10 Mar 30, 2009 02:19 AM

e|-------------4-2--------------------|
B|------2------2-2------7-5-----7-7--5|
G|------1------2-2------7-7-----7-7--7|
D|------2------2-2------7-7-----6-6---|
A|-------------x-x------x-x-----7-7--7|
E|-------------2-2------7-7-----------|

watching the vid is probably easier to understand if you know your strings.. and though I haven't submitted any tabs here yet, becuase I can't be stuffed and there isn't any interesting song that I want to tab, I can tab this better..

you did great though.. GOOD JOB!!

0 reply
xDkenDx 10 Mar 30, 2009 02:23 AM

i just realised.. your tabs had more flaws..
I was meant to say 'good effort'..

guest
Wanna post a correction for this tab? Suggest correction