Oops, an error
Loading. Please wait.

Paperweight tab

version 2
version 2

Whole song

18,074 views 9 this week
no commentswrite comment
1 2 3 4 5
x 4
add to favorites
×
Save as Personal and add changes to this tab that will be seen only by you. Learn more ›
×
You can save this tab as Personal to edit and correct it or add notes. All changes will be seen only by you. Learn more »
launch autoscroll
font size
0
reset
how to read this tab
guitar tuner
edit
Autoscroll
slow
fast
+/-
esc
set tempo
stop
Tabbed by: Connor Rhodes
Email: Connor.Rhodes@hotmail.co.uk

-Notes-
Standard Tuning
Capo 1st Fret
h = Hammer-On
> = Continued
 

[Intro] x 2
E--0-0-0-0--0---0-0-0--0-0-0-0-----------0-0-0-0--0---0-0-0--0-0-0-0-0---0-0|
B--0-0-0-0--0h1-1-1-1--3-3-3-3-----------0-0-0-0--0h1-1-1-1--3-3-3-3-3---3-3|
G--0-0-0-0--0h2-2-2-2--2-2-2-2-----------0-0-0-0--0h2-2-2-2--2-2-2-2-0h2-2-2|
D--2-2-2-2--0h2-2-2-3--0-0-0-0-----------2-2-2-2--0h2-2-2-3--0-0-0-0-0---0-0|
A--2-2-2-2-------------------------------2-2-2-2-------------------------0-0|
E--0-0-0-0----------------------3-2-0----0-0-0-0-------------------------0-0|


[Verse Riff] x 2
E--0-0-0-0--0---0-0-0--0-0-0-0-----------0-0-0-0--0---0-0-0--0-0-0-0-0---0-0|
B--0-0-0-0--0h1-1-1-1--3-3-3-3-----------0-0-0-0--0h1-1-1-1--3-3-3-3-3---3-3|
G--0-0-0-0--0h2-2-2-2--2-2-2-2-----------0-0-0-0--0h2-2-2-2--2-2-2-2-0h2-2-2|
D--2-2-2-2--0h2-2-2-3--0-0-0-0-----------2-2-2-2--0h2-2-2-3--0-0-0-0-0---0-0|
A--2-2-2-2-------------------------------2-2-2-2-------------------------0-0|
E--0-0-0-0----------------------3-2-0----0-0-0-0-------------------------0-0|

  
[Prechorus]
E--0-0-0-0--0-0-0-0--0-0-0-0--0-0-0-0->
B--1-1-1-1--3-3-3-3--0-0-0-0--3-3-3-3->
G--0-0-0-0--0-0-0-0--0-0-0-0--2-2-2-2->
D--2-2-2-2--0-0-0-0--2-2-2-2--0-0-0-0->
A--3-3-3-3--2-2-2-2--2-2-2-2---------->
E--------------------0-0-0-0---------->

E--0-0-0-0-0-0-0-0--0-0-0-0-0-0-0-0--2-2-2-2-2---2-2-2|
B- 1-1-1-1-1-1-1-1--3-3-3-3-3-3-3-3--3-3-3-3-3---3-3-3|
G--0-0-0-0-0-0-0-0--0-0-0-0-0-0-0-0--2-2-2-2-0h2-2-2-2|
D--2-2-2-2-2-2-2-2--0-0-0-0-0-0-0-0--0-0-0-0-0---0-0-0|
A--3-3-3-3-3-3-3-3--2-2-2-2-2-2-2-2--0-0-0-0-0---0-0-0|
E-----------------------------------------------------|
  

[Chorus]
E--3-3-3-3-3-3-3-3--2-2-2-2-2---2-2-2--3-3-3-3-3-3-3-3--0-0-0-0-0-->
B--3-3-3-3-3-3-3-3--3-3-3-3-3---3-3-3--3-3-3-3-3-3-3-3--1-1-1-1-1-->
G--0-0-0-0-0-0-0-0--2-2-2-2-0h2-2-3-3--0-0-0-0-0-0-0-0--0-0-0-0-0-->
D--0-0-0-0-0-0-0-0--0-0-0-0-0---0-0-0--0-0-0-0-0-0-0-0--2-2-2-2-0h2>
A--2-2-2-2-2-2-2-2---------------------2-2-2-2-2-2-2-2--3-3-3-3-3-->
E--3-3-3-3-3-3-3-3---------------------3-3-3-3-3-3-3-3------------->

E--3-3-3-3-3-3-3-3--2-2-2-2--0-0-0-0-0----3-3-3-3--2-2-2-2|
B--3-3-3-3-3-3-3-3--3-3-3-3--1-1-1-1-1----3-3-3-3--3-3-3-3|
G--0-0-0-0-0-0-0-0--2-2-2-2--0-0-0-0-0----0-0-0-0--2-2-2-2|
D--0-0-0-0-0-0-0-0--0-0-0-0--2-2-2-2-0h2--0-0-0-0--0-0-0-0|
A--2-2-2-2-2-2-2-2-----------3-3-3-3-3----2-2-2-2---------|
E--3-3-3-3-3-3-3-3------------------------3-3-3-3---------|
  


[Bridge]
E--0-0-0-0-0-0-0-0--0-0-0-0-0---0-0-0--3-3-3-3-3-3-3-3--0-0-0-0-0---0-0-0>
B--1-1-1-1-1-1-1-1--3-3-3-3-3---3-3-3--3-3-3-3-3-3-3-3--1-1-1-1-1---1-1-1>
G--2-2-2-2-2-2-2-2--2-2-2-2-0h2-2-2-2--0-0-0-0-0-0-0-0--0-0-0-0-0---0-0-0>
D--2-2-2-2-2-2-2-2--0-0-0-0-0---0-0-0--0-0-0-0-0-0-0-0--2-2-2-2-0h2-2-2-2>
A--0-0-0-0-0-0-0-0---------------------2-2-2-2-2-2-2-2--3-3-3-3-3---3-3-3>
E--------------------------------------3-3-3-3-3-3-3-3------------------->

E--0-0-0-0-0-0-0-0--0-0-0-0-0---0-0-0--3-3-3-3-3-3-3-3--0-0-0-0-0--|
B--1-1-1-1-1-1-1-1--3-3-3-3-3---3-3-3--3-3-3-3-3-3-3-3--1-1-1-1-1--|
G--2-2-2-2-2-2-2-2--2-2-2-2-0h2-2-2-2--0-0-0-0-0-0-0-0--0-0-0-0-0--|
D--2-2-2-2-2-2-2-2--0-0-0-0-0---0-0-0--0-0-0-0-0-0-0-0--2-2-2-2-0h2|
A--0-0-0-0-0-0-0-0---------------------2-2-2-2-2-2-2-2--3-3-3-3-3--|
E--------------------------------------3-3-3-3-3-3-3-3-------------|



[Prechorus V2]
E--0-0-0-0--0-0-0-0--0-0-0-0--0-0-0-0--0-0-0-0-0-0-0-0--0-0-0-0-0-0-0-0>
B--1-1-1-1--3-3-3-3--0-0-0-0--3-3-3-3--1-1-1-1-1-1-1-1--3-3-3-3-3-3-3-3>
G--0-0-0-0--0-0-0-0--0-0-0-0--2-2-2-2--0-0-0-0-0-0-0-0--0-0-0-0-0-0-0-0>
D--2-2-2-2--0-0-0-0--2-2-2-2--0-0-0-0--2-2-2-2-2-2-2-2--0-0-0-0-0-0-0-0>
A--3-3-3-3--2-2-2-2--2-2-2-2-----------3-3-3-3-3-3-3-3--2-2-2-2-2-2-2-2>
E--------------------0-0-0-0------------------------------------------->

E--0-0-0-0--0-0-0-0--0-0-0-0--0-0-0-0--0-0-0-0-0-0-0-0--0-0-0-0-0-0-0-0|
B--1-1-1-1--3-3-3-3--0-0-0-0--3-3-3-3--1-1-1-1-1-1-1-1--3-3-3-3-3-3-3-3|
G--0-0-0-0--0-0-0-0--0-0-0-0--2-2-2-2--0-0-0-0-0-0-0-0--0-0-0-0-0-0-0-0|
D--2-2-2-2--0-0-0-0--2-2-2-2--0-0-0-0--2-2-2-2-2-2-2-2--0-0-0-0-0-0-0-0|
A--3-3-3-3--2-2-2-2--2-2-2-2-----------3-3-3-3-3-3-3-3--2-2-2-2-2-2-2-2|
E--------------------0-0-0-0-------------------------------------------|



[Bridge V2]
E--0-0-0-0-0-0-0-0--0-0-0-0-0---0-0-0--3-3-3-3-3-3-3-3--0-0-0-0-0---0-0-0>
B--1-1-1-1-1-1-1-1--3-3-3-3-3---3-3-3--3-3-3-3-3-3-3-3--1-1-1-1-1---1-1-1>
G--2-2-2-2-2-2-2-2--2-2-2-2-0h2-2-2-2--0-0-0-0-0-0-0-0--0-0-0-0-0---0-0-0>
D--2-2-2-2-2-2-2-2--0-0-0-0-0---0-0-0--0-0-0-0-0-0-0-0--2-2-2-2-0h2-2-2-2>
A--0-0-0-0-0-0-0-0---------------------2-2-2-2-2-2-2-2--3-3-3-3-3---3-3-3>
E--------------------------------------3-3-3-3-3-3-3-3------------------->

E--3-3-3-3-3-3-3-3--2-2-2-2-2-2-2-2|
B--3-3-3-3-3-3-3-3--3-3-3-3-3-3-3-3|
G--0-0-0-0-0-0-0-0--2-2-2-2-2-2-2-2|
D--0-0-0-0-0-0-0-0--0-0-0-0-0-0-0-0|
A--2-2-2-2-2-2-2-2-----------------|
E--3-3-3-3-3-3-3-3-----------------|



[Chorus]
E--3-3-3-3-3-3-3-3--2-2-2-2-2---2-2-2--3-3-3-3-3-3-3-3--0-0-0-0-0-->
B--3-3-3-3-3-3-3-3--3-3-3-3-3---3-3-3--3-3-3-3-3-3-3-3--1-1-1-1-1-->
G--0-0-0-0-0-0-0-0--2-2-2-2-0h2-2-3-3--0-0-0-0-0-0-0-0--0-0-0-0-0-->
D--0-0-0-0-0-0-0-0--0-0-0-0-0---0-0-0--0-0-0-0-0-0-0-0--2-2-2-2-0h2>
A--2-2-2-2-2-2-2-2---------------------2-2-2-2-2-2-2-2--3-3-3-3-3-->
E--3-3-3-3-3-3-3-3---------------------3-3-3-3-3-3-3-3------------->

E--3-3-3-3-3-3-3-3--2-2-2-2--0-0-0-0-0----3-3-3-3--2-2-2-2|
B--3-3-3-3-3-3-3-3--3-3-3-3--1-1-1-1-1----3-3-3-3--3-3-3-3|
G--0-0-0-0-0-0-0-0--2-2-2-2--0-0-0-0-0----0-0-0-0--2-2-2-2|
D--0-0-0-0-0-0-0-0--0-0-0-0--2-2-2-2-0h2--0-0-0-0--0-0-0-0|
A--2-2-2-2-2-2-2-2-----------3-3-3-3-3----2-2-2-2---------|
E--3-3-3-3-3-3-3-3------------------------3-3-3-3---------|



[Bridge]
E--0-0-0-0-0-0-0-0--0-0-0-0-0---0-0-0--3-3-3-3-3-3-3-3--0-0-0-0-0---0-0-0>
B--1-1-1-1-1-1-1-1--3-3-3-3-3---3-3-3--3-3-3-3-3-3-3-3--1-1-1-1-1---1-1-1>
G--2-2-2-2-2-2-2-2--2-2-2-2-0h2-2-2-2--0-0-0-0-0-0-0-0--0-0-0-0-0---0-0-0>
D--2-2-2-2-2-2-2-2--0-0-0-0-0---0-0-0--0-0-0-0-0-0-0-0--2-2-2-2-0h2-2-2-2>
A--0-0-0-0-0-0-0-0---------------------2-2-2-2-2-2-2-2--3-3-3-3-3---3-3-3>
E--------------------------------------3-3-3-3-3-3-3-3------------------->

E--0-0-0-0-0-0-0-0--0-0-0-0-0---0-0-0--3-3-3-3-3-3-3-3--0-0-0-0-0--|
B--1-1-1-1-1-1-1-1--3-3-3-3-3---3-3-3--3-3-3-3-3-3-3-3--1-1-1-1-1--|
G--2-2-2-2-2-2-2-2--2-2-2-2-0h2-2-2-2--0-0-0-0-0-0-0-0--0-0-0-0-0--|
D--2-2-2-2-2-2-2-2--0-0-0-0-0---0-0-0--0-0-0-0-0-0-0-0--2-2-2-2-0h2|
A--0-0-0-0-0-0-0-0---------------------2-2-2-2-2-2-2-2--3-3-3-3-3--|
E--------------------------------------3-3-3-3-3-3-3-3-------------|



[Verse V2/Interlude]
E--3-3-3-3--3-3-3-3--3-3-3-3--3-3-3-3--0-0-0-0--0-0-0-0>
B--3-3-3-3--3-3-3-3--3-3-3-3--3-3-3-3--3-3-3-3--0-0-0-0>
G--0-0-0-0--0-0-0-0--0-0-0-0--0-0-0-0--0-0-0-0--0-0-0-0>
D--0-0-0-0--0-0-0-0--0-0-0-0--0-0-0-0--0-0-0-0--2-2-2-2>
A--2-2-2-2--2-2-2-2--2-2-2-2--2-2-2-2--2-2-2-2--2-2-2-2>
E--3-3-3-3--3-3-3-3--3-3-3-3--3-3-3-3--0-0-0-0--0-0-0-0>

E--0-0-0-0--0-0-0-0--0-0-0-0--0-0-0-0>
B--3-3-3-3--3-3-3-3--3-3-3-3--3-3-3-3>
G--2-2-2-2--2-2-2-2--2-2-2-2--2-2-2-2>
D--0-0-0-0--0-0-0-0--0-0-0-0--0-0-0-0>
A------------------------------------>
E------------------------------------>

E--0-0-0-0--0-0-0-0--0-0-0-0--0-0-0-0--2-2-2-2--2-2-2-2--2-2-2-2--2-2-2-2>
B--1-1-1-1--1-1-1-1--3-3-3-3--3-3-3-3--3-3-3-3--3-3-3-3--3-3-3-3--3-3-3-3>
G--2-2-2-2--2-2-2-2--2-2-2-2--2-2-2-2--2-2-2-2--2-2-2-2--3-3-3-3--3-3-3-3>
D--2-2-2-2--2-2-2-2--0-0-0-0--0-0-0-0--0-0-0-0--0-0-0-0--0-0-0-0--0-0-0-0>
A--0-0-0-0--0-0-0-0------------------------------------------------------>
E------------------------------------------------------------------------>

E--3-3-3-3--3-3-3-3--3-3-3-3--3-3-3-3--2-2-2-2--2-2-2-2--2-2-2-2--2-2-2-2>
B--3-3-3-3--3-3-3-3--3-3-3-3--3-3-3-3--3-3-3-3--3-3-3-3--3-3-3-3--3-3-3-3>
G--0-0-0-0--0-0-0-0--0-0-0-0--0-0-0-0--2-2-2-2--2-2-2-2--2-2-2-2--2-2-2-2>
D--0-0-0-0--0-0-0-0--0-0-0-0--0-0-0-0--0-0-0-0--0-0-0-0--0-0-0-0--0-0-0-0>
A--2-2-2-2--2-2-2-2--2-2-2-2--2-2-2-2------------------------------------>
E--3-3-3-3--3-3-3-3--3-3-3-3--3-3-3-3------------------------------------>

E--3-3-3-3--3-3-3-3--2-2-2-2-2---2-2-2--3-3-3-3-3-3-3-3--0-0-0-0-0---0-0-0|
B--3-3-3-3--3-3-3-3--3-3-3-3-3---3-3-3--3-3-3-3-3-3-3-3--1-1-1-1-1---1-1-1|
G--0-0-0-0--0-0-0-0--2-2-2-2-0h2-2-3-3--0-0-0-0-0-0-0-0--0-0-0-0-0---0-0-0|
D--0-0-0-0--0-0-0-0--0-0-0-0-0---0-0-0--0-0-0-0-0-0-0-0--2-2-2-2-0h2-2-2-2|
A--2-2-2-2--2-2-2-2---------------------2-2-2-2-2-2-2-2--3-3-3-3-3---3-3-3|
E--3-3-3-3--3-3-3-3---------------------3-3-3-3-3-3-3-3-------------------|



[Chorus]
E--3-3-3-3-3-3-3-3--2-2-2-2-2---2-2-2--3-3-3-3-3-3-3-3--0-0-0-0-0-->
B--3-3-3-3-3-3-3-3--3-3-3-3-3---3-3-3--3-3-3-3-3-3-3-3--1-1-1-1-1-->
G--0-0-0-0-0-0-0-0--2-2-2-2-0h2-2-3-3--0-0-0-0-0-0-0-0--0-0-0-0-0-->
D--0-0-0-0-0-0-0-0--0-0-0-0-0---0-0-0--0-0-0-0-0-0-0-0--2-2-2-2-0h2>
A--2-2-2-2-2-2-2-2---------------------2-2-2-2-2-2-2-2--3-3-3-3-3-->
E--3-3-3-3-3-3-3-3---------------------3-3-3-3-3-3-3-3------------->

E--3-3-3-3-3-3-3-3--2-2-2-2--0-0-0-0-0----3-3-3-3--2-2-2-2|
B--3-3-3-3-3-3-3-3--3-3-3-3--1-1-1-1-1----3-3-3-3--3-3-3-3|
G--0-0-0-0-0-0-0-0--2-2-2-2--0-0-0-0-0----0-0-0-0--2-2-2-2|
D--0-0-0-0-0-0-0-0--0-0-0-0--2-2-2-2-0h2--0-0-0-0--0-0-0-0|
A--2-2-2-2-2-2-2-2-----------3-3-3-3-3----2-2-2-2---------|
E--3-3-3-3-3-3-3-3------------------------3-3-3-3---------|



[Bridge]
E--0-0-0-0-0-0-0-0--0-0-0-0-0---0-0-0--3-3-3-3-3-3-3-3--0-0-0-0-0---0-0-0>
B--1-1-1-1-1-1-1-1--3-3-3-3-3---3-3-3--3-3-3-3-3-3-3-3--1-1-1-1-1---1-1-1>
G--2-2-2-2-2-2-2-2--2-2-2-2-0h2-2-2-2--0-0-0-0-0-0-0-0--0-0-0-0-0---0-0-0>
D--2-2-2-2-2-2-2-2--0-0-0-0-0---0-0-0--0-0-0-0-0-0-0-0--2-2-2-2-0h2-2-2-2>
A--0-0-0-0-0-0-0-0---------------------2-2-2-2-2-2-2-2--3-3-3-3-3---3-3-3>
E--------------------------------------3-3-3-3-3-3-3-3------------------->

E--0-0-0-0-0-0-0-0--0-0-0-0-0---0-0-0--3-3-3-3-3-3-3-3--0-0-0-0-0--|
B--1-1-1-1-1-1-1-1--3-3-3-3-3---3-3-3--3-3-3-3-3-3-3-3--1-1-1-1-1--|
G--2-2-2-2-2-2-2-2--2-2-2-2-0h2-2-2-2--0-0-0-0-0-0-0-0--0-0-0-0-0--|
D--2-2-2-2-2-2-2-2--0-0-0-0-0---0-0-0--0-0-0-0-0-0-0-0--2-2-2-2-0h2|
A--0-0-0-0-0-0-0-0---------------------2-2-2-2-2-2-2-2--3-3-3-3-3--|
E--------------------------------------3-3-3-3-3-3-3-3-------------|



[Outtro(Intro)]

E--0-0-0-0--0---0-0-0--0-0-0-0-----------0-0-0-0--0---0-0-0--0-0-0-0-0--|
B--0-0-0-0--0h1-1-1-1--3-3-3-3-----------0-0-0-0--0h1-1-1-1--3-3-3-3-3--|
G--0-0-0-0--0h2-2-2-2--2-2-2-2-----------0-0-0-0--0h2-2-2-2--2-2-2-2-0h2|
D--2-2-2-2--0h2-2-2-3--0-0-0-0-----------2-2-2-2--0h2-2-2-3--0-0-0-0-0--|
A--2-2-2-2-------------------------------2-2-2-2------------------------|
E--0-0-0-0----------------------3-2-0----0-0-0-0------------------------|

            
            
Suggest correction
Creating personal tab
Creating personal tab
You can edit any tab online and save it as your Personal.

You can edit, replace or remove any tab part or add personal notes – all changes will be seen only by you.

Personal tabs can be accessed anytime from any device, even offline.
Learn more »
comments
print report bad tab
guest
You may want to rate the tab now too:
select rating
Wanna post a correction for this tab? Suggest correction