Oops, an error
Loading. Please wait.

What If You tab

version 2
version 2

Whole song

17,824 views 3 this week
1 commentread comment
1 2 3 4 5
x 4
add to favorites
×
Save as Personal and add changes to this tab that will be seen only by you. Learn more ›
×
You can save this tab as Personal to edit and correct it or add notes. All changes will be seen only by you. Learn more »
launch autoscroll
font size
0
reset
how to read this tab
guitar tuner
edit
Autoscroll
slow
fast
+/-
esc
set tempo
stop
So this is my version of the song, thanks to ak10 who previously tabbed it, in times of
I went there to see what he did and it helped me along. I think it’s pretty accurate,
some of the fills simplified, cause in his songs he embellishes certain areas at 
parts. Play along and you will get it I think. Thanks, Matt.

Capo on 6th

Intro


------------------------------------------------------------------0h2------|
-----0------------1-----1---------------------0---------------3---------3--|
-----0--------------0-----0---------------------------------2---2-----2---0|
-----2----2-0---------2-----2---------------0---0---0h2p0-0----------------|
---2-----------3--------------3--3-0h2p0-----------------------------------|
-0------0---------------------------------3-------3------------------------|

------------------------------------------------------------------0h2------|
-----0-----0------1-----1---------------------0---------------3---------3--|
--------------------0-----0---------------------------------2---2-----2---0|
---2---2--2--0--------------2---------------0---0---0h2p0-0----------------|
--2------2-----3--------------3--3-0h2p0-----------------------------------|
-0----------------------------------------3-------3------------------------|

Verse

------------------------------------------|
-0---------------0---0--------------------|
-0---0---0---0---0----0-------------------|
-2-2---2-0-0---0-0-0---0------------------|
-2-------0-------2------------------------|
-0-------2-------3-------3-0h2p0----------|

---------------------3--------------------|
-0---------------0----3-------------------|
-0---0---0---0---0-----0------------------| 2x
-2-2---2-0-0---0-0-0----0-----------------|
-2-------0-------2------------------------|
-0-------2-------3--------3-0h2p0---------|

Chorus


---------------------------0h2-------------------------------------------|
-----1-----------------3---------3--------3-------3-------0--------------|
-------0-------------2---2-----2---0----0--0----2--2-------0-------------| 3x
---2---------0h2p2-0-------------------0-------0--------2-------2-0------|
-3-------3-3-------------------------------------------2-----------------|
-------------------------------------3-------2-------0-------0-----------|

---------------------------2--------------------------------------------|
-----1-----------------3-------2-0-----3--------------------------------|
-------0-------------2---2---2-----0-2---2------------------------------|
---2---------0h2h2-0----------------------------------------------------|
-3-------3-3-------------------------------0h2p0------------------------|
------------------------------------------------------------------------|

Then repeat as necessary, enjoy! :D

He has a somewhat varied outro, I might post that edited if I bother to figure it out. Thanks.

            
            
Suggest correction
Creating personal tab
Creating personal tab
You can edit any tab online and save it as your Personal.

You can edit, replace or remove any tab part or add personal notes – all changes will be seen only by you.

Personal tabs can be accessed anytime from any device, even offline.
Learn more »
comments
print report bad tab
1 comment total.
0 reply
lovesthegstring 10 Jan 25, 2009 01:43 PM

sounds tip top to me man. nice job.

guest
You may want to rate the tab now too:
select rating
Wanna post a correction for this tab? Suggest correction