Oops, an error
Loading. Please wait.
We have an official Dont Stop Believin tab made by UG professional guitarists. Check out the tab »
×

Dont Stop Believin tab

by Journey
364,064 views 189 this week
22 commentsread comments
1 2 3 4 5
x 59
add to favorites
×
Save as Personal and add changes to this tab that will be seen only by you. Learn more ›
×
You can save this tab as Personal to edit and correct it or add notes. All changes will be seen only by you. Learn more »
launch autoscroll
font size
0
reset
how to read this tab
guitar tuner
backing track
0:00
0:00
edit
Autoscroll
slow
fast
+/-
esc
set tempo
stop
Author
                              DON'T STOP BELIEVIN'
                             As recorded by Journey
                          (From the 1981 Album ESCAPE)

Words and Music by Steve Perry, Neal Schon and Jonathan Cain
Arranged by Journey
Transcribed by Derek Line

Gtr I (E A D G B E) - 'Piano 1 (right-hand piano part arr. for gtr.)'
Gtr II (E A D G B E) - 'Gtr. 1 (elec. w/dist.)'
Gtr III (E A D G B E) - 'Gtr. 2 (elec. w/dist.)'
Gtr IV (E A D G B E) - 'Gtr. 3 (elec. w/dist.)'

[Intro]
  Moderately Q=120
  E5            B5                C#m7              A                 E5
 4/4
  Gtr I
  E E E E E E E E   E E E E E E E E   E E E E E E E E   E E E E E E E E
e|-7---7---7---7---|-7---7---7---7---|-7---7---7---7---|-5---5---5---5----|
B|-5---5---5---5---|-7---7---7---7---|-5---5---5---5---|-2---2---2---2----|
G|---4---4---4---4-|---4---4---4---4-|---4---4---4---4-|---2---2---2---2--|
D|-----------------|-----------------|-----------------|------------------|
A|-----------------|-----------------|-----------------|------------------|
E|-----------------|-----------------|-----------------|------------------|


                 B5                G#m               A
   E E E E E E E E   E E E E E E E E   E E E E E E E E   E E E E E E E E
e|-7---7---7---7---|-7---7---7---7---|-7---7---7---7---|-5---5---5---5---||
B|-5---5---5---5---|-7---7---7---7---|-4---4---4---4---|-2---2---2---2---||
G|---4---4---4---4-|---4---4---4---4-|---4---4---4---4-|---2---2---2---2-||
D|-----------------|-----------------|-----------------|-----------------||
A|-----------------|-----------------|-----------------|-----------------||
E|-----------------|-----------------|-----------------|-----------------||


  1st Verse
   E5            B5                    C#m7          A
   E E E E E E E E   E E E E E E E E   E E E E E E E E   E E E E E E E E
e|-7---7---7---7---|-7---7---7---7---|-7---7---7---7---|-5---5---5---5---|
B|-5---5---5---5---|-7---7---7---7---|-5---5---5---5---|-2---2---2---2---|
G|---4---4---4---4-|---4---4---4---4-|---4---4---4---4-|---2---2---2---2-|
D|-----------------|-----------------|-----------------|-----------------|
A|-----------------|-----------------|-----------------|-----------------|
E|-----------------|-----------------|-----------------|-----------------|


   E5            B5                    G#m           A
   E E E E E E E E   E E E E E E E E   E E E E E E E E   E E E E E E E E
e|-7---7---7---7---|-7---7---7---7---|-7---7---7---7---|-5---5---5---5---|
B|-5---5---5---5---|-7---7---7---7---|-4---4---4---4---|-2---2---2---2---|
G|---4---4---4---4-|---4---4---4---4-|---4---4---4---4-|---2---2---2---2-|
D|-----------------|-----------------|-----------------|-----------------|
A|-----------------|-----------------|-----------------|-----------------|
E|-----------------|-----------------|-----------------|-----------------|


   E5              B5                        C#m7          A
    E  E E E E E E E     E   E E E E E E E   E E E E E E E E   E E E E E E E E
e|--7----7---7---7---|---7-----7---7---7---|-7---7---7---7---|-5---5---5---5---|
B|--5----5---5---5---|---7-----7---7---7---|-5---5---5---5---|-2---2---2---2---|
G|-----4---4---4---4-|-------4---4---4---4-|---4---4---4---4-|---2---2---2---2-|
D|-------------------|---------------------|-----------------|-----------------|
A|-------------------|---------------------|-----------------|-----------------|
E|-------------------|---------------------|-----------------|-----------------|
|
 | Gtr II
 |  W                   +W                   W                 W
e|-<7>---------------|-(<7>)---------------|-----------------|-----------------|
B|-------------------|---------------------|-----------------|-----------------|
G|-------------------|---------------------|-----------------|-----------------|
D|-------------------|---------------------|-----------------|-----------------|
A|-------------------|---------------------|-----------------|-----------------|
E|-------------------|---------------------|-----------------|-----------------|


   E5            B5                    G#m           A
   E E E E E E E E   E E E E E E E E   E E E E E E E E   E E E E E E E  E
e|-7---7---7---7---|-7---7---7---7---|-7---7---7---7---|-5---5---5---5-----||
B|-5---5---5---5---|-7---7---7---7---|-4---4---4---4---|-2---2---2---2-----||
G|---4---4---4---4-|---4---4---4---4-|---4---4---4---4-|---2---2---2----2--||
D|-----------------|-----------------|-----------------|-------------------||
A|-----------------|-----------------|-----------------|-------------------||
E|-----------------|-----------------|-----------------|-------------------||
|
 | W                 W                 W                 H       Q   E  E
e|-----------------|-----------------|-----------------|---------------<5>-||
B|-----------------|-----------------|-----------------|-------------------||
G|-----------------|-----------------|-----------------|-------------------||
D|-----------------|-----------------|-----------------|-------------------||
A|-----------------|-----------------|-----------------|-------------------||
E|-----------------|-----------------|-----------------|-------------------||
|
 | Gtr III
 | W                 W                 W                 H       Q   E  E
e|-----------------|-----------------|-----------------|---------------!x--||
B|-----------------|-----------------|-----------------|---------------!x--||
G|-----------------|-----------------|-----------------|---------------!x--||
D|-----------------|-----------------|-----------------|---------------!x--||
A|-----------------|-----------------|-----------------|---------------!x--||
E|-----------------|-----------------|-----------------|---------------!x--||


   E5                 B5                                               C#m7
     E   E E  E E E E E     E       E     E     E     E     E     E     E
e|---7-----7----7---7---|---7-------------7-----------7-----------7----------|
B|---5-----5----5---5---|---7-------------7-----------7-----------7----------|
G|-------4----4---4---4-|-----------4-----------4-----------4-----------4----|
D|----------------------|----------------------------------------------------|
A|----------------------|----------------------------------------------------|
E|----------------------|----------------------------------------------------|
|
 |  +W                     +W
e|-(<5>)----------------|-(<5>)----------------------------------------------|
B|----------------------|----------------------------------------------------|
G|----------------------|----------------------------------------------------|
D|----------------------|----------------------------------------------------|
A|----------------------|----------------------------------------------------|
E|----------------------|----------------------------------------------------|
|
|                          PM--------------------------------------------|
|  +Q.       E H           S    S  S  S  S  S  S  S  S  S  S  S  S  S  S  S

e|--(x)------!x---------|----------------------------------------------------|
B|--(x)------!x---------|--17---16-------17-16-------17-16-------17-16-------|
G|--(x)------!x---------|----------18-16-------18-16-------18-16-------18-16-|
D|--(x)-----------------|----------------------------------------------------|
A|--(x)-----------------|----------------------------------------------------|
E|--(x)-----------------|----------------------------------------------------|


                                             A
    E     E     E     E     E     E     E     E
e|--7-----------7-----------7-----------7----------|
B|--5-----------5-----------5-----------5----------|
G|--------4-----------4-----------4-----------4----|
D|-------------------------------------------------|
A|-------------------------------------------------|
E|-------------------------------------------------|
|
 |  W
e|-------------------------------------------------|
B|-------------------------------------------------|
G|-------------------------------------------------|
D|-------------------------------------------------|
A|-------------------------------------------------|
E|-------------------------------------------------|
|
 |  PM----------------------------------------------
 |  S  S  S  S  S  S  S  S  S  S  S  S  S  S  S  S
e|-------------------------------------------------|
B|-17-16-------17-16-------17-16-------17-16-------|
G|-------18-16-------18-16-------18-16-------18-16-|
D|-------------------------------------------------|
A|-------------------------------------------------|
E|-------------------------------------------------|


                                             E5
    E     E     E     E     E     E     E     E
e|--5-----------5-----------5-----------5----------|
B|--2-----------2-----------2-----------2----------|
G|--------2-----------2-----------2-----------2----|
D|-------------------------------------------------|
A|-------------------------------------------------|
E|-------------------------------------------------|
|
 |  W
e|-------------------------------------------------|
B|-------------------------------------------------|
G|-------------------------------------------------|
D|-------------------------------------------------|
A|-------------------------------------------------|
E|-------------------------------------------------|
|
|----------------------------------------------|
|  S  S  S  S  S  S  S  S  S  S  S  S  S  S  S  S

e|-------------------------------------------------|
B|-17-16-------17-16-------17-16-------17-16-------|
G|-------18-16-------18-16-------18-16-------18-16-|
D|-------------------------------------------------|
A|-------------------------------------------------|
E|-------------------------------------------------|


                                              B5
    E      E     E     E     E     E     E     E
e|--7------------7-----------7-----------7----------|
B|--5------------5-----------5-----------5----------|
G|---------4-----------4-----------4-----------4----|
D|--------------------------------------------------|
A|--------------------------------------------------|
E|--------------------------------------------------|
|
 |  W
e|-<7>----------------------------------------------|
B|--------------------------------------------------|
G|--------------------------------------------------|
D|--------------------------------------------------|
A|--------------------------------------------------|
E|--------------------------------------------------|
|
|  PM-------------------------------------------|
|  S   S  S  S  S  S  S  S  S  S  S  S  S  S  S  S

e|--------------------------------------------------|
B|-17--16-------17-16-------17-16-------17-16-------|
G|--------18-16-------18-16-------18-16-------18-16-|
D|--------------------------------------------------|
A|--------------------------------------------------|
E|--------------------------------------------------|


                                                         G#m
     E         E        E       E        E       E        E       E
e|---7------------------7----------------7----------------7---------------|
B|---7------------------7----------------7----------------7---------------|
G|-------------4----------------4----------------4----------------4-------|
D|------------------------------------------------------------------------|
A|------------------------------------------------------------------------|
E|------------------------------------------------------------------------|
|
 |  +W
e|-(<7>)------------------------------------------------------------------|
B|------------------------------------------------------------------------|
G|------------------------------------------------------------------------|
D|------------------------------------------------------------------------|
A|------------------------------------------------------------------------|
E|------------------------------------------------------------------------|
|
|   |-------5-------|  |------5------|  |------5------|  |------5------|
|   S    S  S    S  S  S  S  S    S  S  S  S  S    S  S  S  S  S    S  S

e|------------------------------------------------------------------------|
B|--17---16---------17-16---------17-16-------17---16-------17-16---------|
G|----------18---16-------18-16---------18-16---------18-16---------18-16-|
D|------------------------------------------------------------------------|
A|------------------------------------------------------------------------|
E|------------------------------------------------------------------------|


                                                                  A
    E        E        E        E        E        E        E        E
e|--7-----------------7-----------------7-----------------7----------------|
B|--4-----------------4-----------------4-----------------4----------------|
G|-----------4-----------------4-----------------4-----------------4-------|
D|-------------------------------------------------------------------------|
A|-------------------------------------------------------------------------|
E|-------------------------------------------------------------------------|
|
 |  W
e|-------------------------------------------------------------------------|
B|-------------------------------------------------------------------------|
G|-------------------------------------------------------------------------|
D|-------------------------------------------------------------------------|
A|-------------------------------------------------------------------------|
E|-------------------------------------------------------------------------|
|
|  |------6-------|  |------6-------|  |------6-------|  |------6-------|
|  S  S  S  S  S  S  S  S  S  S  S  S  S  S  S  S  S  S  S  S  S  S  S  S

e|-------------------------------------------------------------------------|
B|-17-16-------17-16-------17-16-------17-16-------17-16-------17-16-------|
G|-------18-16-------18-16-------18-16-------18-16-------18-16-------18-16-|
D|-------------------------------------------------------------------------|
A|-------------------------------------------------------------------------|
E|-------------------------------------------------------------------------|


                                       E5
    E        E        E    E      E  E   E   E
e|--5-----------------5-----------5------5-----|
B|--2-----------------2-----------2------2-----|
G|-----------2-------------2---------2-------2-|
D|---------------------------------------------|
A|---------------------------------------------|
E|---------------------------------------------|
|
 |  W
e|---------------------------------------------|
B|---------------------------------------------|
G|---------------------------------------------|
D|---------------------------------------------|
A|---------------------------------------------|
E|---------------------------------------------|
|
|  |------6-------|
|  S  S  S  S  S  S  S S  E     +Q     +Q

e|------------------------19b21-(19)r==(19)\---|
B|-17-16-------17-16------19----(19)---(19)\---|
G|-------18-16-------18-x----------------------|
D|---------------------------------------------|
A|---------------------------------------------|
E|---------------------------------------------|


  2nd Verse
                 B5                    C#m7          A
   E E E E E E E E   E E E E E E E E   E E E E E E E E   E E E E E E E E
e|-7---7---7---7---|-7---7---7---7---|-7---7---7---7---|-5---5---5---5---|
B|-5---5---5---5---|-7---7---7---7---|-5---5---5---5---|-2---2---2---2---|
G|---4---4---4---4-|---4---4---4---4-|---4---4---4---4-|---2---2---2---2-|
D|-----------------|-----------------|-----------------|-----------------|
A|-----------------|-----------------|-----------------|-----------------|
E|-----------------|-----------------|-----------------|-----------------|


   E5            B5                    G#m               A
                                                                 <
   E E E E E E E E   E E E E E E E E   E E E E E E E E   E E E E E E E E
e|-7---7---7---7---|-7---7---7---7---|-7---7---7---7---|-5---5-----------|
B|-5---5---5---5---|-7---7---7---7---|-4---4---4---4---|-2---2-----------|
G|---4---4---4---4-|---4---4---4---4-|---4---4---4---4-|---2---2---------|
D|-----------------|-----------------|-----------------|-----------------|
A|-----------------|-----------------|-----------------|---------0-0-0-0-|
E|-----------------|-----------------|-----------------|-----------------|


[Pre-Chorus]
    B/A    A            B/A    E/A
    Gtr II
       PM|    PM----|      PM|    PM----|
     E E E  E E E E E    E E E  E E E E E

e|--------------------|-------------------|
B|o--7------5---------|--7------9---------|
G|---8------6---------|--8------9---------|
D|---9------7---------|--9------9---------|
A|o----0-0----0-0-0-0-|----0-0----0-0-0-0-|
E|--------------------|-------------------|
|
 |   Gtr III
 |    E E E  E H          E E E  E H
e|--------------------|--------12---------|
B|o-16-----14---------|-16-----12---------|
G|--16-----14---------|-16-----11---------|
D|--16-----14---------|-16----------------|
A|o-------------------|-------------------|
E|--------------------|-------------------|


  B/E    E            B/E    E
     PM|    PM----|      PM|    PM----|
   E E E  E E E E E    E E E  E E E E E

e|-------------------|--------------------|
B|--7------9---------|--7------9----------|
G|--8------9---------|--8------9----------|
D|--9------9---------|--9------9----------|
A|-------------------|--------------------|
E|----0-0----0-0-0-0-|----0-0----0-0-0-0--|
|
 |  E E E  E H          E E E  E H
e|-------------------|--------12----------|
B|-16-----12---------|-16-----12----------|
G|-16-----13---------|-16-----11----------|
D|-16-----14---------|-16-----------------|
A|-------------------|--------------------|
E|-------------------|--------------------|


  B/A    A            B/A    E/A
     PM|    PM----|      PM|    PM----|
   E E E  E E E E E    E E E  E E E E E

e|-------------------|-------------------|
B|--7------5---------|--7------9---------|
G|--8------6---------|--8------9---------|
D|--9------7---------|--9------9---------|
A|----0-0----0-0-0-0-|----0-0----0-0-0-0-|
E|-------------------|-------------------|
|
 |  E E E  E H          E E E  E H
e|-------------------|--------12---------|
B|-16-----14---------|-16-----12---------|
G|-16-----14---------|-16-----11---------|
D|-16-----14---------|-16----------------|
A|-------------------|-------------------|
E|-------------------|-------------------|


   1.
   B/E    E            B/E    (E5)
      PM|    PM----|      PM|          PM
    E E E  E E E E E    E E E  E +Q.   E
e|-------------------|---------0-(0)------||
B|--7------9---------|--7------0-(0)-----o||
G|--8------9---------|--8-----------------||
D|--9------9---------|--9-----------------||
A|-------------------|-----------------0-o||
E|----0-0----0-0-0-0-|----0-0-------------||
|
 |  E E E  E H          E E E  E  H
e|-------------------|--------12----------||
B|-16-----12---------|-16-----12---------o||
G|-16-----13---------|-16-----11----------||
D|-16-----14---------|-16-----------------||
A|-------------------|-------------------o||
E|-------------------|--------------------||


   2.
   B      Esus2        B   EsuAXIV
           ~~~~~~~             ~~~~~~~
    Q   E  E  +H        Q   E  E  +Q    Q
e|-------------------|----------------------||
B|-16h=17-17-(17)----|-16--17-14-(14)-------||
G|-16-----16-(16)----|-16--16-14-(14)-------||
D|-16-----16-(16)----|-16--16-14-(14)-------||
A|-------------------|---------0--(0)-------||
E|-------------------|-----------------15S==||
|
 |  W                   H          Q    E E
e|-------------------|--------------------0-||
B|-------------------|--------------------0-||
G|-------------------|----------------------||
D|-------------------|----------------------||
A|-------------------|----------------------||
E|-------------------|----------------------||


   E5            B5                  C#5
                 ~~~~~~~~            ~~~
   Q   Q   E E E E   +H        E E E E
e|-----0-----------|-------------------|
B|-----0-----------|-------------------|
G|-----------------|-------------------|
D|-----------------|---------------1---|
A|---------------2-|-(2)-------2-4---4-|
E|-0-------0-2-4---|-------------------|
|
| PM----------|      PM-----------|
| E E E E E E E E    E  E E E E E E E

e|-----------------|-------------------|
B|-----------------|-------------------|
G|---------------4-|-----------------6-|
D|-9-9-9-9-9-9-9-4-|--4--4-6-4-4-4-4-6-|
A|-7-7-7-7-7-7-7-2-|--2--2-2-2-2-2-2-4-|
E|-0-0-0-0-0-0-0---|-------------------|


                     A5
  ~~~~~
   +H        +E  E E E   +H        +E  E E E
e|---------------------|---------------------||
B|---------------------|---------------------||
G|---------------------|---------------------||
D|---------------1-2-2-|-(2)-------(2)-1-2---||
A|-(4)-------(4)-----0-|-(0)-------(0)-------||
E|---------------------|-------------------0-||
|
|  PM-------------|      PM-----------|
|  E  E E E  E  E E E    E  E E E  E  E E E

e|---------------------|-------------------0-||
B|---------------------|-------------------0-||
G|-------------------2-|---------------------||
D|--6--6-7-6--6--6-6-2-|--2--2-4-2--2--2-----||
A|--4--4-4-4--4--4-4-0-|--0--0-0-0--0--0-----||
E|---------------------|---------------------||


    3rd Verse
     E5              B5                  C#5
                     ~~~~~~~~            ~~~
     +Q    Q   E E E E   +H        E E E E
e|--------0-----------|-------------------|
B|o-------0-----------|-------------------|
G|--------------------|-------------------|
D|--------------------|---------------1---|
A|o-----------------2-|-(2)-------2-4---4-|
E|--(0)-------0-2-4---|-------------------|
|
|    PM-----------|      PM-----------|
|    E  E E E E E E E    E  E E E E E E E

e|--------------------|-------------------|
B|o-------------------|-------------------|
G|------------------4-|-----------------6-|
D|---9--9-9-9-9-9-9-4-|--4--4-6-4-4-4-4-6-|
A|o--7--7-7-7-7-7-7-2-|--2--2-2-2-2-2-2-4-|
E|---0--0-0-0-0-0-0---|-------------------|


                     A5
  ~~~~~
   +H        +E  E E E   +H        +E  E E E
e|---------------------|----------------------|
B|---------------------|----------------------|
G|---------------------|----------------------|
D|---------------1-2-2-|-(2)-------(2)-1-2----|
A|-(4)-------(4)-----0-|-(0)-------(0)--------|
E|---------------------|-------------------0--|
|
|  PM-------------|      PM-------------|
|  E  E E E  E  E E E    E  E E E  E  E E E

e|---------------------|-------------------0--|
B|---------------------|-------------------0--|
G|-------------------2-|----------------------|
D|--6--6-7-6--6--6-6-2-|--2--2-4-2--2--2-2----|
A|--4--4-4-4--4--4-4-0-|--0--0-0-0--0--0-0----|
E|---------------------|----------------------|


   1.
   E5              B5                  G#5
                   ~~~~~~~~
   +Q    Q   E E E E   +H        E E E E
e|-------0-----------|-------------------|
B|-------0-----------|-------------------|
G|-------------------|-------------------|
D|-------------------|---------------1---|
A|-----------------2-|-(2)-------2-4---6-|
E|-(0)-------0-2-4---|-----------------4-|
|
|  PM-----------|      PM-----------|
|  E  E E E E E E E    E  E E E E E E E

e|-------------------|-------------------|
B|-------------------|-------------------|
G|-----------------4-|-------------------|
D|--9--9-9-9-9-9-9-4-|--4--4-6-4-4-4-4---|
A|--7--7-7-7-7-7-7-2-|--2--2-2-2-2-2-2-6-|
E|--0--0-0-0-0-0-0---|-----------------4-|


                   A5V
   +H.           E E   +H        +E  E E E
e|-------------------|----------------------||
B|-------------------|---------------------o||
G|-------------------|----------------------||
D|-------------------|---------------1-2----||
A|-(6)-------------7-|-(7)-------(7)-------o||
E|-(4)-----------0-5-|-(5)-------(5)-----0--||
|
|  PM-----------|      PM-------------|
|  E  E E E E E E E    E  E E E  E  E E E

e|-------------------|-------------------0--||
B|-------------------|-------------------0-o||
G|-------------------|----------------------||
D|-------------------|----------------------||
A|--6--6-7-6-6-6-6-7-|--7--7-9-7--7--7-7---o||
E|--4--4-4-4-4-4-4-5-|--5--5-5-5--5--5-5----||


   2.
   E5              B5                  G#5
                   ~~~~~~~~
   +Q    Q   E E E E   +H        E E E E
e|-------0-----------|-------------------|
B|-------0-----------|-------------------|
G|-------------------|-------------------|
D|-------------------|---------------1---|
A|-----------------2-|-(2)-------2-4---6-|
E|-(0)-------0-2-4---|-----------------4-|
|
|  PM-----------|      PM-----------|
|  E  E E E E E E E    E  E E E E E E E

e|-------------------|-------------------|
B|-------------------|-------------------|
G|-----------------4-|-------------------|
D|--9--9-9-9-9-9-9-4-|--4--4-6-4-4-4-4---|
A|--7--7-7-7-7-7-7-2-|--2--2-2-2-2-2-2-6-|
E|--0--0-0-0-0-0-0---|-----------------4-|


                   A5V
   +H.           E E   +H.           Q
e|-------------------|-------------------||
B|-------------------|-------------------||
G|-------------------|-------------------||
D|-------------------|-------------------||
A|-(6)-------------7-|-(7)-----------x\--||
E|-(4)-----------0-5-|-(5)-----------x\--||
|
|  PM-----------|      PM---------|
|  E  E E E E E E E    E  E E E E E Q

e|-------------------|-------------------||
B|-------------------|-------------------||
G|-------------------|-------------------||
D|-------------------|-------------------||
A|--6--6-7-6-6-6-6-7-|--7--7-9-7-7-7-x\--||
E|--4--4-4-4-4-4-4-5-|--5--5-5-5-5-5-x\--||


[Pre-Chorus]
    B/A   A           B/A   E/A         B/E   E           B/E   E
      PM|   PM----|     PM|   PM----|     PM|   PM----|     PM|   PM----|
    E E E E E E E E   E E E E E E E E   E E E E E E E E   E E E E E E E E

e|------------------|-----------------|-----------------|------------------|
B|o-7-----5---------|-7-----9---------|-7-----9---------|-7-----9----------|
G|--8-----6---------|-8-----9---------|-8-----9---------|-8-----9----------|
D|--9-----7---------|-9-----9---------|-9-----9---------|-9-----9----------|
A|o---0-0---0-0-0-0-|---0-0---0-0-0-0-|-----------------|------------------|
E|------------------|-----------------|---0-0---0-0-0-0-|---0-0---0-0-0-0--|
|
|   PM----------------------------|     PM----------------------------|
|   E E E E E E E E   E E E E E E E E   E E E E E E E E   E E E E E E E E

e|------------------|-----------------|-----------------|------------------|
B|o-----------------|-----------------|-----------------|------------------|
G|--2-2-4-4-2-2-4-4-|-2-2-4-4-2-2-4---|-----------------|---------------2--|
D|--2-2-2-2-2-2-2-2-|-2-2-2-2-2-2-2---|-----------------|---------------2--|
A|o-0-0-0-0-0-0-0-0-|-0-0-0-0-0-0-0-2-|-2-2-4-4-2-2-4-0-|-2-2-4-4-2-2-4----|
E|------------------|---------------0-|-0-0-0-0-0-0-0-0-|-0-0-0-0-0-0-0----|


                                      1.
  B/A   A           B/A   E/A         B/E   E           B/E   E
    PM|   PM----|     PM|   PM----|     PM|   PM----|     PM|   PM----|
  E E E E E E E E   E E E E E E E E   E E E E E E E E   E E E E E E E E

e|-----------------|-----------------|-----------------|------------------||
B|-7-----5---------|-7-----9---------|-7-----9---------|-7-----9---------o||
G|-8-----6---------|-8-----9---------|-8-----9---------|-8-----9----------||
D|-9-----7---------|-9-----9---------|-9-----9---------|-9-----9----------||
A|---0-0---0-0-0-0-|---0-0---0-0-0-0-|-----------------|-----------------o||
E|-----------------|-----------------|---0-0---0-0-0-0-|---0-0---0-0-0-0--||
|
| PM----------------------------|     PM----------------------------|
| E E E E E E E E   E E E E E E E E   E E E E E E E E   E E E E E E E E

e|-----------------|-----------------|-----------------|------------------||
B|-----------------|-----------------|-----------------|-----------------o||
G|-2-2-4-4-2-2-4-4-|-2-2-4-4-2-2-4---|-----------------|---------------2--||
D|-2-2-2-2-2-2-2-2-|-2-2-2-2-2-2-2---|-----------------|---------------2--||
A|-0-0-0-0-0-0-0-0-|-0-0-0-0-0-0-0-2-|-2-2-4-4-2-2-4-0-|-2-2-4-4-2-2-4---o||
E|-----------------|---------------0-|-0-0-0-0-0-0-0-0-|-0-0-0-0-0-0-0----||


   2.
   B      Esus2        B    EsuAXIV
           ~~~~~~~              ~~~~~~~
    Q   E  E  +H        Q    E  E  +Q    Q
e|-------------------|------------------------|
B|-16h=17-17-(17)----|-16---17-14-(14)--------|
G|-16-----16-(16)----|-16---16-14-(14)--------|
D|-16-----16-(16)----|-16---16-14-(14)--------|
A|-------------------|----------0--(0)--------|
E|-------------------|------------------15S===|
|
 |  W                  +Q.      E  +Q   +Q
e|-------------------|------------------------|
B|-------------------|------------------------|
G|-------------------|------------------------|
D|-------------------|------------------------|
A|--9----------------|-(9)------7--(7)--(7)\--|
E|--7----------------|-(7)------5--(5)--(5)\--|
|
 | Gtr IV
 |                                       TP
 |  W                   H           Q    Q
e|-------------------|-------------------4/---|
B|-------------------|------------------------|
G|-------------------|------------------------|
D|-------------------|------------------------|
A|-------------------|------------------------|
E|-------------------|------------------------|


[Guitar Solo]
   E5                    B5                             C#5
   Gtr IV
              ~~~~~~~                        ~~~~~~~~~~~~~~
    Q.        E  +Q.      E   a a  Q.        E  +H
e|-16b17-----16-(16)-----14-|-----16b17-----16-(16)-------|
B|--------------------------|---x-------------------------|
G|--------------------------|-x---------------------------|
D|--------------------------|-----------------------------|
A|--------------------------|-----------------------------|
E|--------------------------|-----------------------------|
|
 | Gtr II
 |                        ~~~~~~~~~~~~~~                ~~~
 |  Q      Q      E  E E  E       +H             E  E E E
e|---------0----------------|-----------------------------|
B|---------0----------------|-----------------------------|
G|--------------------------|-----------------------------|
D|--------------------------|-------------------------1---|
A|------------------------2-|-----(2)------------2--4---4-|
E|--0-------------0--2-4----|-----------------------------|
|
| Gtr III
|  PM-----------------|           PM-----------------|
|  E    E E  E   E  E E  E        E    E E  E   E  E E E

e|--------------------------|-----------------------------|
B|--------------------------|-----------------------------|
G|------------------------4-|---------------------------6-|
D|--9----9-9--9---9--9-9--4-|------4----4-6--4---4--4-4-6-|
A|--7----7-7--7---7--7-7--2-|------2----2-2--2---2--2-2-4-|
E|--0----0-0--0---0--0-0----|-----------------------------|


                                A5
  ~~~~~~                              ~~~      ~~~~~~~
    +Q.      E      +E   +E   E  E    Q     E  E  +Q     E  E
e|-(16)-----16b17==(16)r(16)-14----|----------------------------|
B|------------------------------17-|-16----17-14-(14)-----------|
G|---------------------------------|--------------------16-14---|
D|---------------------------------|----------------------------|
A|---------------------------------|----------------------------|
E|---------------------------------|----------------------------|
|
 |~~~~~~
 |  +H              +E    E   E  E   +H           +E  E  E  E
e|---------------------------------|----------------------------|
B|---------------------------------|----------------------------|
G|---------------------------------|----------------------------|
D|------------------------1---2--2-|-(2)----------(2)-1--2------|
A|--(4)-------------(4)----------0-|-(0)----------(0)-----------|
E|---------------------------------|------------------------0---|
|
|   PM----------------------|        PM----------------|
|   E  E E  E       E    E   E  E    E  E  E  E   E  E  E  E

e|---------------------------------|------------------------0---|
B|---------------------------------|------------------------0---|
G|-------------------------------2-|----------------------------|
D|---6--6-7--6-------6----6---6--2-|--2--2--4--2---2--2--2------|
A|---4--4-4--4-------4----4---4--0-|--0--0--0--0---0--0--0------|
E|---------------------------------|----------------------------|


   E5                       B5                                       G#5
                 ~~~~~~~
    Q       +E   E  +Q.      E   a a  Q.         a  +E   +E   E  E a  E
e|-16b17r==(16)-16-(16)-----14-|-----16b17======16r(16)-(16)-14------17b19==|
B|-----------------------------|---x----------------------------17-x--------|
G|-----------------------------|-x------------------------------------------|
D|-----------------------------|--------------------------------------------|
A|-----------------------------|--------------------------------------------|
E|-----------------------------|--------------------------------------------|
|
 |                           ~~~~~~~~~~~~~~~
 | +Q        Q       E  E E  E       +H                   E   E  E    E
e|-----------0-----------------|--------------------------------------------|
B|-----------0-----------------|--------------------------------------------|
G|-----------------------------|--------------------------------------------|
D|-----------------------------|---------------------------------1----------|
A|---------------------------2-|-----(2)------------------2---4-------6-----|
E|-(0)---------------0--2-4----|--------------------------------------4-----|
|
|  PM--------------------|           PM------------------------|
|  E    E   E   E   E  E E  E        E     E E      E    E   E  E    E

e|-----------------------------|--------------------------------------------|
B|-----------------------------|--------------------------------------------|
G|---------------------------4-|--------------------------------------------|
D|--9----9---9---9---9--9-9--4-|------4-----4-6------4----4---4--4----------|
A|--7----7---7---7---7--7-7--2-|------2-----2-2------2----2---2--2----6-----|
E|--0----0---0---0---0--0-0----|--------------------------------------4-----|


                    A5V
     ~~~~~~~~~~~~~~~~~~~~~~~~
    +W                   +H.              +Q
e|-(17)---------------|-(17)-------------(17)\---||
B|--------------------|--------------------------||
G|--------------------|--------------------------||
D|--------------------|--------------------------||
A|--------------------|--------------------------||
E|--------------------|--------------------------||
|
 |  +H.           E E    +H        +E  E   E   E
e|--------------------|--------------------------||
B|--------------------|--------------------------||
G|--------------------|--------------------------||
D|--------------------|----------------1---2-----||
A|--(6)-------------7-|--(7)-------(7)-----------||
E|--(4)-----------0-5-|--(5)-------(5)---------0-||
|
|   PM-----------|       PM-------------|
|   E  E E E E E E E     E  E E E  E  E   E   E

e|--------------------|------------------------0-||
B|--------------------|------------------------0-||
G|--------------------|--------------------------||
D|--------------------|--------------------------||
A|---6--6-7-6-6-6-6-7-|---7--7-9-7--7--7---7-----||
E|---4--4-4-4-4-4-4-5-|---5--5-5-5--5--5---5-----||


[Chorus/Outro]
     E5              B5                  C#5
     Gtr II
                     ~~~~~~~~            ~~~
     +Q    Q   E E E E   +H        E E E E
e|--------0-----------|-------------------|
B|o-------0-----------|-------------------|
G|--------------------|-------------------|
D|--------------------|---------------1---|
A|o-----------------2-|-(2)-------2-4---4-|
E|--(0)-------0-2-4---|-------------------|
|
|   Gtr III
|    PM-----------|      PM-----------|
|    E  E E E E E E E    E  E E E E E E E

e||--------------------|-------------------|
B||o-------------------|-------------------|
G||------------------4-|-----------------6-|
D||---9--9-9-9-9-9-9-4-|--4--4-6-4-4-4-4-6-|
A||o--7--7-7-7-7-7-7-2-|--2--2-2-2-2-2-2-4-|
E||---0--0-0-0-0-0-0---|-------------------|


                     A5V
  ~~~~~
   +H        +E  E E E   +H        +E  E E E
e|---------------------|----------------------|
B|---------------------|----------------------|
G|---------------------|----------------------|
D|---------------1-2-2-|-(2)-------(2)-1-2----|
A|-(4)-------(4)-----0-|-(0)-------(0)--------|
E|---------------------|-------------------0--|
|
|  PM-------------|      PM-------------|
|  E  E E E  E  E E E    E  E E E  E  E E E

e|---------------------|-------------------0--|
B|---------------------|-------------------0--|
G|-------------------2-|----------------------|
D|--6--6-7-6--6--6-6-2-|--2--2-4-2--2--2-2----|
A|--4--4-4-4--4--4-4-0-|--0--0-0-0--0--0-0----|
E|---------------------|----------------------|


   E5              B5                  G#5
                   ~~~~~~~~
   +Q    Q   E E E E   +H        E E E E
e|-------0-----------|-------------------|
B|-------0-----------|-------------------|
G|-------------------|-------------------|
D|-------------------|---------------1---|
A|-----------------2-|-(2)-------2-4---6-|
E|-(0)-------0-2-4---|-----------------4-|
|
|  PM-----------|      PM-----------|
|  E  E E E E E E E    E  E E E E E E E

e|-------------------|-------------------|
B|-------------------|-------------------|
G|-----------------4-|-------------------|
D|--9--9-9-9-9-9-9-4-|--4--4-6-4-4-4-4---|
A|--7--7-7-7-7-7-7-2-|--2--2-2-2-2-2-2-6-|
E|--0--0-0-0-0-0-0---|-----------------4-|


                   A5V
                   ~~~~~~~~
   +H.           E E   +H        E  E E E  6x
e|-------------------|---------------------||
B|-------------------|--------------------o||
G|-------------------|---------------------||
D|-------------------|--------------1-2----||
A|-(6)-------------7-|-(7)-------7\-------o||
E|-(4)-----------0-5-|-(5)-------5\-----0--||
|
|  PM-----------|      PM------------|
|  E  E E E E E E E    E  E E E E  E E E  6x

e|-------------------|------------------0--||
B|-------------------|------------------0-o||
G|-------------------|---------------------||
D|-------------------|---------------------||
A|--6--6-7-6-6-6-6-7-|--7--7-9-7-7--7-7---o||
E|--4--4-4-4-4-4-4-5-|--5--5-5-5-5--5-5----||



************************************

Duration Legend
---------------
W - whole; H - half; Q - quarter; E - 8th; S - 16th; T - 32nd; X - 64th; a - acciaccatura
+ - note tied to previous; . - note dotted; .. - note double dotted
Uncapitalized letters represent notes that are staccato (1/2 duration)
Irregular groupings are notated above the duration line
Duration letters will always appear directly above the note/fret number it represents the
duration for.  Duration letters with no fret number below them represent rests.  Multi-
bar rests are notated in the form Wxn, where n is the number of bars to rest for.  Low
melody durations appear below the staff

| x    Dead note
| (n)  Ghost note
| >    Accented note
| b    Bend
| /    Slide up
| \    Slide down 

************************************

            
            
Suggest correction
Creating personal tab
Creating personal tab
You can edit any tab online and save it as your Personal.

You can edit, replace or remove any tab part or add personal notes – all changes will be seen only by you.

Personal tabs can be accessed anytime from any device, even offline.
Learn more »
comments
print report bad tab
22 comments total. Showing first comments.
+3 reply
tman4000 72 Dec 09, 2006 05:37 AM

Kinda confusing

+3 reply
PhantomWuss95 31 Dec 30, 2006 07:36 AM

this is how tabs are supposed to be

+1 reply
ls311 100 Jan 21, 2007 02:00 PM

on the verge of tears. great tab.

guest
You may want to rate the tab now too:
select rating
Wanna post a correction for this tab? Suggest correction