Oops, an error
Loading. Please wait.
We have an official Open Arms tab made by UG professional guitarists. Check out the tab »
×
by Journey
7,407 views 1 this week
no commentswrite comment
1 2 3 4 5
2 more votes to show rating
add to favorites
×
Save as Personal and add changes to this tab that will be seen only by you. Learn more ›
×
You can save this tab as Personal to edit and correct it or add notes. All changes will be seen only by you. Learn more »
launch autoscroll
font size
0
reset
how to read this tab
guitar tuner
backing track
0:00
0:00
edit
Autoscroll
slow
fast
+/-
esc
set tempo
stop
Open Arms by Journey
Capo: 5th fret

INTRO:

E|--------------------------------------------------------|
B|----------------------------------------------3-3h5-3-0-|
G|----4-6-2-----4-1^2---2-1-1^2-1-------------2-----------|
D|--2-------2-2-------------------2---4-4-4-4-------------|
A|----------------------------------4---------------------|
E|--------------------------------------------------------|

VERSE 1:

    Lying...            here...           feeling...
E|--------------------------------------------------------|
B|--------------------------------------------------------|
G|----4-4^6-2-------------4-1^2-----------2-1-1^2-1-------|
D|--2---------2---------2---------------------------2---4-|
A|----------------------------------------------------4---|
E|--------------------------------------------------------|

OPTIONAL:

E|-------------------|
B|---------3-3h5-3-0-|
G|-------2-----------|
D|-4-4-4-------------|
A|-------------------|
E|-------------------|

    Softly...      you're...    how...        be...
E|--------------------------------------------------------|
B|--------------------------------------------------------|
G|----4-4^6-2--------4-4^6-2----2-1-1^2-1-----------------|
D|--2---------2----2--------------------------2-6-6^7-6-4-|
A|--------------------------------------------------------|
E|--------------------------------------------------------|

OPTIONAL:

E|-------------------|
B|---------3-3h5-3-0-|
G|-------2-----------|
D|-4-4-4-------------|
A|-------------------|
E|-------------------|

REFRAIN 1:

    We sailed...        we drifted...   but here...
E|--------------------------------------------------------|
B|--------------------------------------------------------|
G|--2-2^4-4-2-2^4-2-----4-4^6-4-2-2-----1-1^2-2-1-1^2-1---|
D|------------------4-----------------------------------4-|
A|--------------------------------------------------------|
E|--------------------------------------------------------|

CHORUS:

    So now...        with open...   nothing...
E|--------------------------------------------------------|
B|----2-3^5(b)-2^5(b)--5-7-5h7-5----5-3-2-0---5-3-2-0h2-0-|
G|--2----------------2----------------------2-------------|
D|--------------------------------------------------------|
A|--------------------------------------------------------|
E|--------------------------------------------------------|

    So here... with open...   hoping...
E|--------------------------------------------------------|
B|----5-5-5------5-7-5h7-5----5-3-2-0-2-3h5-3-2-0---------|
G|--2----------2----------------------------------2-1-1^2-|
D|--------------------------------------------------------|
A|--------------------------------------------------------|
E|--------------------------------------------------------|

SOLO:

E|--------------------------------------------------------|
B|----------------------------------------------3-3h5-3-0-|
G|----4^6-2-----4-1^2---2-1-1^2-1-------------2-----------|
D|--2-------2-2-------------------2---4-4-4-4-------------|
A|----------------------------------4---------------------|
E|--------------------------------------------------------|

VERSE 2:

    Living...            living...        this empty...
E|---------------------------2----------------------------|
B|-----------------------7-5---2--------------------------|
G|----4-6-7^6-2---------------------------2-1-1^2-1-------|
D|--2-----------------------------------------------2-6-4-|
A|--------------------------------------------------------|
E|--------------------------------------------------------|

    Wanting...           wanting...       how much...
E|---------------------------2-0--------------------------|
B|-----------------------7-5----------------7-------------|
G|----4-6-7^6-2---------------------------6---6-4-1^2-1---|
D|--2---------------------------------------------------4-|
A|--------------------------------------------------------|
E|--------------------------------------------------------|

REFRAIN 2:

    But now...            Turn night...    I need...
E|--------------------------2-0-2-0h2-0-------------------|
B|--------------------------------------------------------|
G|--2-2^4-4-6-4^6-4-2-----2----------------2-1-2-2^4------|
D|---------------------------------------------------4(b)-|
A|--------------------------------------------------------|
E|--------------------------------------------------------|

CHORUS:

    So now...        with open...   nothing...
E|--------------------------------------------------------|
B|----2-3^5(b)-2^5(b)--5-7-5h7-5----5-3-2-0---5-3-2-0h2-0-|
G|--2----------------2----------------------2-------------|
D|--------------------------------------------------------|
A|--------------------------------------------------------|
E|--------------------------------------------------------|

    So here... with open...   hoping...
E|--------------------------------------------------------|
B|----5-5-5------5-7-5h7-5----5-3-2-0-2-3h5-3-2-0---------|
G|--2----------2----------------------------------2-1-1^2-|
D|--------------------------------------------------------|
A|--------------------------------------------------------|
E|--------------------------------------------------------|

OUTRO:

E|--------------------------------------------------------|
B|------------------------------------------------------2-|
G|----4-4^6-2-----------4-4^6-2-----------4-4^6-2-0-----2-|
D|--2---------2-------2---------2-------2-----------3---2-|
A|--------------------------------------------------------|
E|--------------------------------------------------------|


This is my first tab.. I'm not really good, but hope this helps.
E-mail: immah4tin@yahoo.com 


LYRICS:

Verse 1:
Lying beside you, here in the dark
Feeling your heart beat with mind
Softly you whisper, you're so sincere
How could our live be so blind

Refrain 1:
We sailed on together
We drifted apart
And here you are by my side

Chorus:
So now I come to you, with open arms
Nothing to hide, believe what I say
So here I am with open arms
Hoping you'll see what your love means to me
Open arms

Verse 2:
Living without you, living alone
This empty house seems so cold
Wanting to hold you, wanting you near
How much I wanted you home

Refrain 2:
But now that you've come back
Turned night into day
I need you to stay. 

Chorus:
So now I come to you, with open arms
Nothing to hide, believe what I say
So here I am with open arms
Hoping you'll see what your love means to me
Open arms


            
            
Suggest correction
Creating personal tab
Creating personal tab
You can edit any tab online and save it as your Personal.

You can edit, replace or remove any tab part or add personal notes – all changes will be seen only by you.

Personal tabs can be accessed anytime from any device, even offline.
Learn more »
Give kudos to tab author, rate the tab!
1 2 3 4 5
comments
print report bad tab
guest
Wanna post a correction for this tab? Suggest correction