Oops, an error
Loading. Please wait.

Stone In Love bass

version 3
version 3

Whole song

Interactive

by Journey
388 views 3 this week
no commentswrite comment
1 2 3 4 5
2 more votes to show rating
add to favorites
×
Save as Personal and add changes to this tab that will be seen only by you. Learn more ›
×
You can save this tab as Personal to edit and correct it or add notes. All changes will be seen only by you. Learn more »
launch autoscroll
font size
0
reset
guitar tuner
backing track
0:00
0:00
edit
Autoscroll
slow
fast
+/-
esc
set tempo
stop
Author
STONE IN LOVE-JOURNEY
Listen to the song for actual timings.

Composed by Jonathan Cain; Steve Perry and Neil Schion

Tuning: EADG (Standard)


Bass comes in after the guitar intro and the first two lines of the verse

Then:
                                               
G|-------|
D|-------|
A|12/----|
E|-----3-|

Verse 1:

In the heat with a blue jean girl..       1.                 2.
G|*----------------------|------------------*|------------------|
D|*o--------4------2-----|-----------------o*|-2----------------|
A|*o-2-3--5----5-3---3-2-|2h32-------------o*|---3-2--2-2-3-4-5-|
E|*----------------------|----5-2-3---------*|------------------|

Chorus

        
G|-------------------5-4-2---2-4-----------------|
D|-------------------------5-------------4-5-----|
A|5-5-5-5-5-5-5-5--5-------------3-3-3-3---------|
E|-------------------------------------------3---|

G|----------|
D|----------|
A|----3-----|
E|-3----3---|


Then First Guitar solo:

G|-------|
D|-------|
A|12/----|
E|-----3-|

G|---------------------|-----------------|
D|--------4------2-----|-----------------|
A|-2-3--5----5-3---3-2-|2h32-------------|
E|---------------------|----5-2-3--------|

Verse 2:

                                           x3
G|*----------------------|------------------*|------------------|
D|*o--------4------2-----|-----------------o*|-2----------------|
A|*o-2-3--5----5-3---3-2-|2h32-------------o*|---3-2--2-2-3-4-5-|
E|*----------------------|----5-2-3---------*|------------------|


Then Chorus:


G|-------------------5-4-2---2-4-----------------|
D|-------------------------5-------------4-5-----|
A|5-5-5-5-5-5-5-5--5-------------3-3-3-3---------|
E|-------------------------------------------3---|

G|----------|
D|----------|
A|----3-----|
E|-3----3---|

then last time:

G|-------------------5-4-2---2-4--------------------|
D|-------------------------5----------------7-5-----|
A|5-5-5-5-5-5-5-5--5-------------3-3-3-3/-7---------|
E|----------------------------------------------3---|


Solo: Repat Verse except last part


Outro:


G|-----------------------------------------------|
D|----------------5------------------------------|
A|-----------------------------------7-10\-------|
E|3-3-3-3-3-3-3-3---3-3-3-3-3-3-3/-7------3-3-3-3|

               . .                  
G|-------------2-4-|
D|-----------------|
A|-----------------|
E|-3-3-3-3-3-3-----|


G|--------------3--------------------------------|
D|--------------------------------3-5------------|
A|----------------------------3------------------|
E|3-3-3-3-3-3-3---3-3-3-3-3-3---3--3-------------|



G|-----------------------------------------------|
D|-5-5-5-5-5-5-5-5-5-5-5-5-----------------------|
A|------------------------OR---------------------| OR BOTH
E|---------------------------3-3-3-3-3-3-3-3-3-3-|



G|-----2-3--2--4^-|--------------------------------|
D|o3-5--------5---|0-1-3-1--0-3-0---0-------------o|
A|o---------------|---------------3---3-2---------o| Repeat till fade
E|----------------|--------------------------------|


I'm sure this is not 100% correct. I had a little problem with the outro part.

Don't strangle/murder/massacre me! DX

If you got questions, email me at bryagbisit@gmail.com

Rate the tab after you've learned it and have a nice day.

            
            
Suggest correction
Creating personal tab
Creating personal tab
You can edit any tab online and save it as your Personal.

You can edit, replace or remove any tab part or add personal notes – all changes will be seen only by you.

Personal tabs can be accessed anytime from any device, even offline.
Learn more »
Give kudos to tab author, rate the tab!
1 2 3 4 5
comments
print report bad tab
guest
You may want to rate the tab now too:
select rating
Wanna post a correction for this tab? Suggest correction