Oops, an error
Loading. Please wait.

Stone In Love bass

version 1
version 1

Whole song

Interactive

by Journey
7,377 views 9 this week
5 commentsread comments
1 2 3 4 5
x 7
add to favorites
×
Save as Personal and add changes to this tab that will be seen only by you. Learn more ›
×
You can save this tab as Personal to edit and correct it or add notes. All changes will be seen only by you. Learn more »
launch autoscroll
font size
0
reset
guitar tuner
backing track
0:00
0:00
edit
Autoscroll
slow
fast
+/-
esc
set tempo
stop
Author
Standard Tuning E-A-D-G

Verse/Solo riff {the note in "()" varies throughout the song}

G----------------------------------------------------------|
D----------4------(5)--------------------4------5----------|
A---2-3-5----5-3-----3-2---2-0----2-3-5----5-3----3-2--2-0-| repeat
E-3----------------------------3---------------------------|

Chorus riff

G-------------------5-4-------4-------------------------------|
D-----------------------7-5-7---------------3-5---------------|
A-5-5-5-5-5-5-5-5-5-------------3-3-3-3-3-3--------------3----|
E-----------------------------------------------3-3-3-3----3--|

            
            
Suggest correction
Creating personal tab
Creating personal tab
You can edit any tab online and save it as your Personal.

You can edit, replace or remove any tab part or add personal notes – all changes will be seen only by you.

Personal tabs can be accessed anytime from any device, even offline.
Learn more »
comments
print report bad tab
5 comments total. Showing first comments.
+1 reply
mod_of_rock 10 Aug 05, 2008 03:52 PM

very accurate. Well done!

+1 reply
mod_of_rock 10 Aug 05, 2008 03:54 PM

my only correction would be that you included no direction for the bridge.

+1 reply
R8:31b 1,731 Jan 13, 2009 10:14 PM

yeah bridge and solo would be a very nice addition, but what is there so far is spot on.

guest
You may want to rate the tab now too:
select rating
Wanna post a correction for this tab? Suggest correction