Oops, an error
Loading. Please wait.

Salvami bass

version 1
version 1

Whole song

Interactive

3,869 views 1 this week
no commentswrite comment
1 2 3 4 5
2 more votes to show rating
add to favorites
×
Save as Personal and add changes to this tab that will be seen only by you. Learn more ›
×
You can save this tab as Personal to edit and correct it or add notes. All changes will be seen only by you. Learn more »
launch autoscroll
font size
0
reset
guitar tuner
edit
Autoscroll
slow
fast
+/-
esc
set tempo
stop
Author
Difficulty
-------------------------------------------------------------------------------
			     Salvami - Jovanotti
-------------------------------------------------------------------------------

Tabbed By : vancs
e-mail: orbital@citromail.hu

Tuning: standard

first salva part[X2]:

Salvami salvati salvaci salviamoci|salvali salvati salvaci salviamoci

G|---------------------------------------------------------------------------|
D|---------------------------------------------------------------------------|
A|-3-3-3-3-3-3-3-3-3-3-3-3-3-3-3-3-1-1-1-1-1-1-1-1---------------------------|
E|-------------------------------------------------3-3-3-3-3-3-3-3-----------|

 verse[X6]:(different ending on the fourth.)|1.-3., 5.-6. |

G|---------------------------------------------------------------------------|
D|--------2--3--5---------2--3--5--8-8-8-8-8-8-8-8-1-1-1-1--1--1-------------|
A|-3-3-3-----------3-3-3-----------------------------------------------------|
E|---------------------------------------------------------------------------|

 |4.              |

G|---------------------------------------------------------------------------|
D|-1-1-1-1-1---1-2-----------------------------------------------------------|
A|-----------3---------------------------------------------------------------|
E|---------------------------------------------------------------------------|

second and third salvas: same as the first, but on the last salvasomething, you play:

G|---------------------------------------------------------------------------|
D|---------------------------------------------------------------------------|
A|-/10-10-10-10-10-10-10-10-10-----------------------------------------------|
E|---------------------------------------------------------------------------|

second verse(verse variation):
play 4 times, but play only the first half of the fourth, like this:
G|---------------------------------------------------------------------------|
D|-------2--3--5-------------------------------------------------------------|
A|-3-3-3---------3-3-3-------------------------------------------------------|
E|---------------------------------------------------------------------------|

after this: 3 more verse parts.

third verse(a salva variation, i am sure the ending isn't correct, though.):

G|---------------------------------------------------------------------------|
D|---------------------------------------------------------------------------|
A|-3-3-3-3-3-3-3-3-3-3-3-3-3-3-3-3-1-1-1-1-1-1-1-1---------------------------|
E|-------------------------------------------------3-3-3-3-3-3-3-3-----------|

G|---------------------------------------------------------------------------|
D|-----------------/10-10-10-10-10-10-10-10----------------------------------|
A|-3-3-3-3-3-3-3-3---------------------------8-8-8-8-3-3-3-3-1-1-1-1-3-3-3-3-|
E|---------------------------------------------------------------------------|

G|---------------------------------------------------------------------------|
D|---------------------------------------------------------------------------|
A|-3-------------------------------------------------------------------------|
E|---------------------------------------------------------------------------|

song structure:

salva                    X2
verse                    X3
verse (variation)        X1
verse                    X2
salva                    X1
salva (variated)         X1
verse                    X3
verse (drum variation)   X1
verse                    X3
salva                    X1
salva variation          X1
salva (ending-variation) X1

            
            
Suggest correction
Creating personal tab
Creating personal tab
You can edit any tab online and save it as your Personal.

You can edit, replace or remove any tab part or add personal notes – all changes will be seen only by you.

Personal tabs can be accessed anytime from any device, even offline.
Learn more »
Give kudos to tab author, rate the tab!
1 2 3 4 5
comments
print report bad tab
guest
You may want to rate the tab now too:
select rating
Wanna post a correction for this tab? Suggest correction