Oops, an error
Loading. Please wait.

The Only Mistake bass

721 views 6 this week
no commentswrite comment
1 2 3 4 5
x 3
add to favorites
×
Save as Personal and add changes to this tab that will be seen only by you. Learn more ›
×
You can save this tab as Personal to edit and correct it or add notes. All changes will be seen only by you. Learn more »
launch autoscroll
font size
0
reset
guitar tuner
edit
Autoscroll
slow
fast
+/-
esc
set tempo
stop
Author
Difficulty
Artist: Joy Division
  song: The Only Mistake

Tuning: Normal

  Riff 1                                                    
G|-------------------------|-------------------------|
D|-------------------------|-------------------------|
A|-5---5---5---5---5---5---|-7---7---7---7---7---7---|
E|-------------------------|-------------------------|

G|-------------------------|-------------------------|
D|-------------------------|-------------------------|
A|-8---8---8---8---8---8---|-10--101010--10--10--10--|
E|-------------------------|-------------------------|x10

Made the fatal mistake,
Like I did once before,
A tendency just to take,
Till the purpose turned sour,

(Pause and let ring...)

  Riff 2                                                    
G|-------------------------|-------------------------|
D|-------------------------|-------------------------|
A|-5---5---5---5---5---5---|-5---5---5---5---5---3---|
E|-------------------------|-------------------------|

G|-------------------------|-------------------------|
D|-------------------------|-------------------------|
A|-5---5---5---5---5---5---|-5---5---5---5---5---3---|
E|-------------------------|-------------------------|

G|-------------------------|-------------------------|
D|-------------------------|-------------------------|
A|-------------------------|-------------------------|
E|-5---5---5---5---5---5---|-5---5---5---5---5---3---|

G|-------------------------|-------------------------|
D|-------------------------|-------------------------|
A|-------------------------|-------------------------|
E|-5---5---5---5---5---5---|-5---5---5---5---5---3---|x2

Strain, take the strain, these days we love,
Strain, take the strain, these days we love.

(Riff 1) x6

Yeah, the only mistake, was that you ran away,
Avenues lined with trees, strangled words for the day,

  Riff 3                                                    
G|-7---7-7-7---7---7---7---|-9---9-9-9---9---9---9---|
D|-7---7-7-7---7---7---7---|-9---9-9-9---9---9---9---|
A|-------------------------|-------------------------|
E|-------------------------|-------------------------|

G|-10--101010--10--10--10--|-12--121212--12--12--12--|
D|-10--101010--10--10--10--|-12--121212--12--12--12--|
A|-------------------------|-------------------------|
E|-------------------------|-------------------------|x4

Yeah, the only mistake, like I made once before,
Yeah, the only mistake, could have made it before.

G|-12--121212--12--12--12--|
D|-12--121212--12--12--12--|
A|-------------------------|
E|-------------------------|x3

(Pause and let ring...)


(Riff 2) x2 

Strain, take the strain, these days we love,
Strain, take the strain, these days we love.

  Riff 4                                                    
G|-------------------------|-------------------------|
D|-------------------------|-------------------------|
A|-5---5---5---5---5---3---|-5---5---5---5---3---0---|
E|-------------------------|-------------------------|x3

(Riff 1) x6
And the only mistake, led to rumours unfound,
Led to pressures unknown, different feelings and sounds,
Yeah the only mistake, like I made once before,

(Riff 2) x4
Yeah, the only mistake, could have made it before.

G|-12--121212--12--121212--|-12--121212--12--121212--|
D|-12--121212--12--121212--|-12--121212--12--121212--|
A|-------------------------|-------------------------|
E|-------------------------|-------------------------|


            
            
Suggest correction
Creating personal tab
Creating personal tab
You can edit any tab online and save it as your Personal.

You can edit, replace or remove any tab part or add personal notes – all changes will be seen only by you.

Personal tabs can be accessed anytime from any device, even offline.
Learn more »
Give kudos to tab author, rate the tab!
1 2 3 4 5
comments
print report bad tab
guest
You may want to rate the tab now too:
select rating
Wanna post a correction for this tab? Suggest correction