Oops, an error
Loading. Please wait.

This Song Is A Mess But So Am I tab

1,528 views 27 this week
no commentswrite comment
1 2 3 4 5
x 6
add to favorites
×
Save as Personal and add changes to this tab that will be seen only by you. Learn more ›
×
You can save this tab as Personal to edit and correct it or add notes. All changes will be seen only by you. Learn more »
launch autoscroll
font size
0
reset
how to read this tab
guitar tuner
edit
Autoscroll
slow
fast
+/-
esc
set tempo
stop
Author
Joyce Manor - This Song Is a Mess but So Am I
Tuning:Standard

Simple song. I like to play the verse parts with all barre chords on the sixth string. 

[Intro]
E|-----------------------------|
B|-----------------------------|
G|-----------------------------|
D|---6-7--6----6-9--6----------|
A|-7--------9----------9~------|
E|-0---------------------------|

E|--------------------------------------|
B|--------------------------------------|
G|-----------------9-6-------------6----|
D|---6-7--6----6-9------6--6--6-6----7-6|
A|-7--------9---------------------------|
E|-0------------------------------------|

E|-----------------------------|
B|-----------------------------|
G|-----------------------------|
D|---6-7--6----6-9--6----------|
A|-7--------9----------9~------|
E|-0---------------------------|

E|--------------------------------|
B|--------------------------------|
G|--------------------------------|
D|-7-7-7-7-7-7-7-7-7-7-7-7-7-7-7-7|
A|--------------------------------|
E|--------------------------------|

E|-------------------------|
B|9-9--9-9--9-9--9-9-------|
G|9-9--9-9--9-9--9-9--9-8--|
D|7-7--7-7--7-7--7-7--9-8--|
A|7-7--7-7--7-7--7-7--7-6--| 
E|-------------------------|

[Verse]

E
I wrote this one for you
G#min
Cause that's all I could do
A
It's sad, but it's all true
B
So I guess it'll have to do
E
And trust the broken wing
G#min
A bird that doesn't sing
A
Useless, not unused
B
Some other cover coming through

[Chorus]
G#min
Just wanna sleep away the hour
E                   C#minor
Blinded by the light
A                   B
This song is a mess but so am I

E|------------------------------|
B|------------------------------|
G|-9-9---9-9---9-9---9-9---9-8--|
D|-------------------------9-8--|
A|-7-7---7-7---7-7---7-7---7-6--|
E|------------------------------|

[Verse]
E
The need is so extreme
G#min
When you begin to dream
A
When you said, "nothing's new"
B
Made fucking zero sense from you

[Chorus]
G#min
Just wanna sleep away the hour
E
Blinded by the light
A                   B
This song is a mess but so am I

[Outro]
E|-----------------------------|
B|-----------------------------|
G|-----------------------------|
D|---6-7--6----6-9--6----------|
A|-7--------9----------9~------|
E|-0---------------------------|

E|--------------------------------------|
B|--------------------------------------|
G|-----------------9-6-------------6----|
D|---6-7--6----6-9------6--6--6-6----7-6|
A|-7--------9---------------------------|
E|-0------------------------------------|

E|-----------------------------|
B|-----------------------------|
G|-----------------------------|
D|---6-7--6----6-9--6----------|
A|-7--------9----------9~------|
E|-0---------------------------|

E|--------------------------------|
B|--------------------------------|
G|--------------------------------|
D|-7-7-7-7-7-7-7-7-7-7-7-7-7-7-7-7|
A|--------------------------------|
E|--------------------------------|

E|-------------------------|
B|9-9--9-9--9-9--9-9-------|
G|9-9--9-9--9-9--9-9--9-8--|
D|7-7--7-7--7-7--7-7--9-8--|
A|7-7--7-7--7-7--7-7--7-6--| 
E|-------------------------|

            
            
Suggest correction
Creating personal tab
Creating personal tab
You can edit any tab online and save it as your Personal.

You can edit, replace or remove any tab part or add personal notes – all changes will be seen only by you.

Personal tabs can be accessed anytime from any device, even offline.
Learn more »
comments
print report bad tab
guest
You may want to rate the tab now too:
select rating
Wanna post a correction for this tab? Suggest correction