Oops, an error
Loading. Please wait.

Its A Trip chords

by Joywave
2,305 views 75 this week
5 commentsread comments
1 2 3 4 5
x 8
add to favorites
×
Save as Personal and add changes to this tab that will be seen only by you. Learn more ›
×
You can save this tab as Personal to edit and correct it or add notes. All changes will be seen only by you. Learn more »
launch autoscroll
font size
0
reset
transpose
0
reset
display chords
guitar tuner
edit
Autoscroll
slow
fast
+/-
esc
set tempo
stop
Strumming Is this strumming pattern correct? Yes No
Intro/Verse (fingerpicked, P.M. on downstrokes) 98 bpm
1
&
2
&
3
&
4
&
Listen
[Intro/Verse]
e|----------------------------|
B|--------4-4-----------------|
G|--------4-4-----------------|   x12
D|--6---------------4---------|
A|--------------6-6---6-------|
E|----------------------------|


Creepy little, sneaky little foreign places

Terrifying territories, I can't take it

It's a great big atlas             Yeah, I'm feeling dumb
            e|-----------------------------------------------------------------|
            B|-------------------------------------------------4-4-------------|
            G|-------------------------------------------------4-4-------------|
            D|---4-4-4-4-4-4-4-4---6-6-6-6-6-6-6-6----------------------4----6-|
            A|---2-2-2-2-2-2-2-2---4-4-4-4-4-4-4-4------------------6-6---6----|
            E|-----------------------------------------------------------------|
            PM   . . . . . . . .   . . . . . . . .

[Chorus]
                            E
When you've gotten what you want
                     C#m
Maybe I should start over
                        G#m
There's nothing left to want

Up and at 'em again
    F#                    E
You don't know what you want
                      C#m
Yeah, I'm thinking it over
                      G#m
Just tell me what to want

e|----------------------|
B|--4-4-----------------|
G|--4-4-----------------|
D|-------------4--------|
A|---------6-6---6------|
E|----------------------|

[Verse]
e|----------------------------|
B|--------4-4-----------------|
G|--------4-4-----------------|   x8
D|--6---------------4---------|
A|--------------6-6---6-------|
E|----------------------------|

Floating little second hands laugh like jokers

     Keeping me from thinking straight, I've lost composure

e|------------------------------------------------------------------------------|
B|--------------------------------------------------------------4-4-------------|
G|--------------------------------------------------------------4-4-------------|
D|---4-4-4-4-4-4-4-4---6-6-6-6-6-6-6-6-----------------------------------4----6-|
A|---2-2-2-2-2-2-2-2---4-4-4-4-4-4-4-4-------------------------------6-6---6----|
E|------------------------------------------------------------------------------|
Pm   . . . . . . . .   . . . . . . . .


[Chorus]
                            E 
When you've gotten what you want
                     C#m
Maybe I should start over
                        G#m
There's nothing left to want

Up and at 'em again
    F#                    E
You don't know what you want
                      C#m
Yeah, I'm thinking it over
                      G#m 
Just tell me what to want
            F#                C#m
When you've gotten what you want
                     E
Maybe I should start over
                        G#m
There's nothing left to want
              B
Up and at 'em again
                        E
You don't know what you want
                      C#m
Yeah, I'm thinking it over
                      G#m
Just tell me what to want

e|----------------------|
B|--4-4-----------------|
G|--4-4-----------------|
D|-------------4--------|
A|---------6-6---6------|
E|----------------------|

[Bridge]
 (this is not the exact number you play these notes)
e|---------------------------------------------------------------------------------------|
B|---------------------------------------------------------------------------------------|
G|----4-4-4-4-4-4-4-4-4-4--3-3-3-3-3--0-0-0-0-0--1-1-1-1-1-1-1-1-1-1-1-1-1-1-1-1-1-1-1---|
D|---------------------------------------------------------------------------------------|
A|---------------------------------------------------------------------------------------|
E|---------------------------------------------------------------------------------------|
 (here you cut the last note in half)
e|------------------------------------------------------------------------------|
B|------------------------------------------------------------------------------|
G|----4-4-4-4-4-4-4-4-4-4--3-3-3-3-3--0-0-0-0-0--1-1-1-1-1-1-1-1-1-1------------|
D|------------------------------------------------------------------------------|
A|------------------------------------------------------------------------------|
E|------------------------------------------------------------------------------|

[Last Chorus]
                            E         C#m
When you've gotten what you want
                        G#m
There's nothing left to want
    F#                    E
You don't know what you want
                      C#m
Yeah, I'm thinking it over
                      G#m 
Just tell me what to want
            F#                C#m
When you've gotten what you want
                     E
Maybe I should start over
                        G#m
There's nothing left to want
              B
Up and at 'em again
                        E
You don't know what you want
                      C#m
Yeah, I'm thinking it over
                      
Just tell me what to want


This is what a second guitar plays with the chorus vocal

     When you've gotten what you want                       Just tell me what to want
e|---4-7-9-7-6-4--------------------------------------------2-2-2-2-4-4------------------|
B|---------------------------------------------------------------------------------------|
G|---------------------------------------------------------------------------------------|
D|---------------------------------------------------------------------------------------|
A|---------------------------------------------------------------------------------------|
E|---------------------------------------------------------------------------------------|

            
            
Suggest correction
Creating personal tab
Creating personal tab
You can edit any tab online and save it as your Personal.

You can edit, replace or remove any tab part or add personal notes – all changes will be seen only by you.

Personal tabs can be accessed anytime from any device, even offline.
Learn more »
comments
print report bad tab
5 comments total. Showing first comments.
+1 reply
dzingariello 35 Sep 01, 2017 07:41 AM

Awesome!

0 reply
blackapples 10 Sep 03, 2017 02:07 PM

did you update this overnight?

0 reply
pipicoteamo 34 Sep 08, 2017 02:50 PM

someone made some corrections

guest
You may want to rate the tab now too:
select rating
Wanna post a correction for this tab? Suggest correction