Oops, an error
Loading. Please wait.

Gone tab

version 1
version 1

Whole song

by JR JR
1,912 views 18 this week
2 commentsread comments
1 2 3 4 5
x 3
add to favorites
×
Save as Personal and add changes to this tab that will be seen only by you. Learn more ›
×
You can save this tab as Personal to edit and correct it or add notes. All changes will be seen only by you. Learn more »
launch autoscroll
font size
0
reset
how to read this tab
guitar tuner
edit
Autoscroll
slow
fast
+/-
esc
set tempo
stop
Artist: JR JR
Song: Gone
Capo: 9th fret


 [Part-A]

e|----------9------9---------------10-------10----------|
B|-------10-----10-----10-------10-------10-------10----|
G|-----9------9------9----9--11-------11-------11-------|
D|------------------------------------------------------|
A|------------------------------------------------------|
E|------------------------------------------------------|

I've made up my mind over and over
Keep pressing rewind but I'm getting older
Tried every door, don't know who I'm looking for
And I've made up my mind over and over


I can't be everything you want me to be
I can't be everything you want me to be


[Part-B]

e|-----12-----12-----12---10-----10-----10---9------9-------9----9------9------9-------9---------|
B|--------9------9-----------9------9----------10-----10-----------10-----10-----10------10------|
G|----------9------9----9------9------9----9------11-----11---11------11-----11-----11-----11----|
D|-----------------------------------------------------------------------------------------------|
A|-----------------------------------------------------------------------------------------------|
E|-----------------------------------------------------------------------------------------------|

Finally, I can see the light through the leaves


[Part-A]

e|----------9------9---------------10-------10----------|
B|-------10-----10-----10-------10-------10-------10----|
G|-----9------9------9----9--11-------11-------11-------|
D|------------------------------------------------------|
A|------------------------------------------------------|
E|------------------------------------------------------|

But it's all gone
But it's all gone


What comes from the ground now is returning
It's all the same sound and my ears are burning
In some strange home, don't know who I'm working for
I've made up my mind over and over

I can't be everything you want me to be
I can't be everything you want me to be
Finally, I can see the light through the leaves


[Part-B]

e|-----12-----12-----12---10-----10-----10---9------9-------9----9------9------9-------9---------|
B|--------9------9-----------9------9----------10-----10-----------10-----10-----10------10------|
G|----------9------9----9------9------9----9------11-----11---11------11-----11-----11-----11----|
D|-----------------------------------------------------------------------------------------------|
A|-----------------------------------------------------------------------------------------------|
E|-----------------------------------------------------------------------------------------------|

Finally, I can see the light through the leaves


[Part-A]

e|----------9------9---------------10-------10----------|
B|-------10-----10-----10-------10-------10-------10----|
G|-----9------9------9----9--11-------11-------11-------|
D|------------------------------------------------------|
A|------------------------------------------------------|
E|------------------------------------------------------|

But it's all gone
But it's all gone

Over and over, over and over
Over and over, over and over

[Part-C]  

e|----9-----9-----|
B|----10----10----|
G|----9-----11----|
D|----11----12----|
A|----12----X-----|
E|----X-----X-----|


[Part-B]

e|-----12-----12-----12---10-----10-----10---9------9-------9----9------9------9-------9---------|
B|--------9------9-----------9------9----------10-----10-----------10-----10-----10------10------|
G|----------9------9----9------9------9----9------11-----11---11------11-----11-----11-----11----|
D|-----------------------------------------------------------------------------------------------|
A|-----------------------------------------------------------------------------------------------|
E|-----------------------------------------------------------------------------------------------|


[Part-A]

e|----------9------9---------------10-------10----------|
B|-------10-----10-----10-------10-------10-------10----|
G|-----9------9------9----9--11-------11-------11-------|
D|------------------------------------------------------|
A|------------------------------------------------------|
E|------------------------------------------------------|

            
            
Suggest correction
Creating personal tab
Creating personal tab
You can edit any tab online and save it as your Personal.

You can edit, replace or remove any tab part or add personal notes – all changes will be seen only by you.

Personal tabs can be accessed anytime from any device, even offline.
Learn more »
Give kudos to tab author, rate the tab!
1 2 3 4 5
comments
print report bad tab
2 comments total.
0 reply
trutru2 37 Jan 30, 2017 09:56 PM

didn't like this contribution

0 reply
trutru2 37 Jan 30, 2017 09:56 PM

didn't like this contribution

guest
You may want to rate the tab now too:
select rating
Wanna post a correction for this tab? Suggest correction