Oops, an error
Loading. Please wait.

Breakfast In Spitalfields chords

version 2
version 2

Whole song

213 views 3 this week
1 commentread comment
1 2 3 4 5
2 more votes to show rating
add to favorites
×
Save as Personal and add changes to this tab that will be seen only by you. Learn more ›
×
You can save this tab as Personal to edit and correct it or add notes. All changes will be seen only by you. Learn more »
launch autoscroll
font size
0
reset
transpose
0
reset
simplify chords
display chords
guitar tuner
edit
Autoscroll
slow
fast
+/-
esc
set tempo
stop
Author
Difficulty
Strumming
There is no strumming pattern for this song yet. and get +5 IQ
-------------------------------------------------------------------------------
                             Breakfast In Spitalfields - Juan Zelada
-------------------------------------------------------------------------------
Tabbed by: lfgtimmer
Tuning: standard


Here are the chords, you have to figure out the timing yourelf.  


[ ] means one measure

Intro & Chorus:
Do do do… 
                                   Fast bit
               F   Dm7 C   A#  F   Dm7 C  F
e|-------x/x---5---5---8---6---5--|-5---8--5-|-------------------|
B|-----(1)/x---6---6---8---6---6--|-6---8--6-|-------------------|
G|-------2/7---5---5---9---7---5--|-5---9--5-|-------------------|
D|-------3/8---7---7---10--8---7--|-7--10--7-|-------------------|
A|-------x/x---8---5---10--8---8--|-5--10--8-|-------------------|
E|-------x/x---x---x---8---6---x--|-x---8--x-|-------------------|

In the chorus the slide is replaced for this chord
    Am7
e|--x------|
B|--x------|
G|--x------|
D|--x------|
A|--7------|
E|--5------|


Verse:
Monday morning…
    
    F  [A# F]  [Dm7 C] [A# F]
e|--5---6--5----5---8---6--5------------------------------------|
B|--6---6--6----6---8---6--6------------------------------------|
G|--5---7--5----5---9---7--5------------------------------------|
D|--7---8--7----7---10--8--7------------------------------------|
A|--8---8--8----5---10--8--8------------------------------------|
E|--x---6--x----x---8---6--x------------------------------------|

Chorus:
Breakfast in Spittalfields…

Play the chords of the intro

Bridge:
And I wont have …
     C   Dm7  Ebm?  C
e|---8---5----6-----8-----|
B|---8---6----6-----8-----|
G|---9---5----7-----9-----|
D|---10--7----8-----10----|
A|---10--5----6-----10----|
E|---8---x----x-----8-----|

End the bridge with a few down strokes with this chord
    A#
e|--6------|
B|--6------|
G|--7------|
D|--8------|
A|--8------|
E|--6------|

Chorus & outro:
Play the chords of the chorus

            
            
Suggest correction
Creating personal tab
Creating personal tab
You can edit any tab online and save it as your Personal.

You can edit, replace or remove any tab part or add personal notes – all changes will be seen only by you.

Personal tabs can be accessed anytime from any device, even offline.
Learn more »
Give kudos to tab author, rate the tab!
1 2 3 4 5
comments
print report bad tab
1 comment total.
0 reply
Sjinobi 10 Sep 12, 2013 03:57 PM

You have the correct intro with the 'do do do do' part but the chorus goes like this i think:

e|--5---6--5----8---6---5---5--8----------------------------------|
B|--5---6--6----8---6---6---6--8----------------------------------|
G|--5---7--5----9---7---5---5--9----------------------------------|
D|--5---8--7----10--8---7---7--10---------------------------------|
A|--6---8--5----10--8---8---5--10---------------------------------|
E|--5---6--5----x---6---5---5--8----------------------------------|

and he varies. Sometimes he plays this twice during the chorus, and sometimes its this the second time:

e|--5---6--10----8---6---5---5--8----------------------------------|
B|--5---6--10----8---6---6---6--8----------------------------------|
G|--5---7--10----9---7---5---5--9----------------------------------|
D|--5---8--10----10--8---7---7--10---------------------------------|
A|--6---8--12----10--8---8---5--10---------------------------------|
E|--5---6--10----x---6---5---5--8----------------------------------|

guest
You may want to rate the tab now too:
select rating
Wanna post a correction for this tab? Suggest correction