Oops, an error
Loading. Please wait.

Ikaw Pa Rin tab

version 1
version 1

Whole song

by Juana
7,503 views 1 this week
1 commentread comment
1 2 3 4 5
2 more votes to show rating
add to favorites
×
Save as Personal and add changes to this tab that will be seen only by you. Learn more ›
×
You can save this tab as Personal to edit and correct it or add notes. All changes will be seen only by you. Learn more »
launch autoscroll
font size
0
reset
how to read this tab
guitar tuner
edit
Autoscroll
slow
fast
+/-
esc
set tempo
stop
Author
Ikaw pa Rin
By Juana

Tabbed by: eleazer dela cruz
       hello to everyone :) e2 yung first tab ko..!!!
hi to lourge, james, grace & mae... pati sa Q6(mau, dess, jean, claire)

Intro:
    F	              C	               A	          Bb
e|----------------*----------------*------------------*--------------------|
B|--5h6-6--6--5---*---5h6-6--6--5--*---5h6-6--6--5----*---5h6-6--8--6------|
G|--5---5--5--5---*---5---5--5--5--*---5---5--5--5----*---5---5--5--5------|
D|----------------*----------------*------------------*--------------------|
A|----------------*----------------*------------------*--------------------|
E|----------------*----------------*------------------*--------------------|

    F	             C	             A	             Bb
e|----------------*---------------*---------------*---6---5---3---2---1---|
B|--5h6-6--6--5---*--5h6-6--6--5--*--5h6-6--6--5--*--5---5---5---5---5----|
G|--5---5--5--5---*--5---5--5--5--*--5---5--5--5--*-----------------------|
D|----------------*---------------*---------------*-----------------------|
A|----------------*---------------*---------------*-----------------------|
E|----------------*---------------*---------------*-----------------------|

Stanza 1:
    F	              C	               A 	          Bb
e|----------------*----------------*------------------*--------------------|
B|--5h6-6--6--5---*---5h6-6--6--5--*---5h6-6--6--5----*---5h6-6--8--6------|
G|--5---5--5--5---*---5---5--5--5--*---5---5--5--5----*---5---5--5--5------|
D|----------------*----------------*------------------*--------------------|
A|----------------*----------------*------------------*--------------------|
E|----------------*----------------*------------------*--------------------|
   Nang matapos na’ng mga araw na ika’y sa aking piling iniibig ka pa rin

    F	            C	           A	            Bb
e|----------------*--------------*----------------*---6---5---3---2---1----|
B|--5h6-6--6--5---*-5h6-6--6--5--*-5h6-6--6--5----*--5---5---5---5---5-----|
G|--5---5--5--5---*-5---5--5--5--*-5---5--5--5----*------------------------|
D|----------------*--------------*----------------*------------------------|
A|----------------*--------------*----------------*------------------------|
E|----------------*--------------*----------------*------------------------|
   Nang maglaho na ang sikat ng buwan at araw sa tuwing magdamag ikaw pa rin

Refrain:(distortion)
    F	 	   C		      D		         Bb(break)
e|---------------------------------------------------------------|
B|---------------------------------------------------------------|
G|--10-------------5------------------7--------------------------|
D|--10-------------5------------------7------------------8-------|
A|--8--------------3------------------5------------------8-------|
E|-------------------------------------------------------6-------|
Bakit nga ba ‘tong pusong nasugatan
Tila nais paring maramdaman tamis ng yakap mo’t halik

Chorus:(distortion)
    F		   C		      D		         Bb
e|---------------------------------------------------------------|\
B|---------------------------------------------------------------| \
G|-----------------5------------------7--------------------------|  2x  
D|--3--------------5------------------7------------------8-------|  /
A|--3--------------3------------------5------------------8-------| /
E|--1----------------------------------------------------6-------|/
Naaalala mo pa ba nung tayo’y magkasama pa
Iyong sinabi’t pinangako na nalimot mo na siya
At kahit naglaho ka na muling sumama sa kanya
Sa aking puso ay ikaw pa rin, ikaw pa rin

fill:
    F		   C		      A		        Bb
e|---------------------------------------------------------------|
B|---------------------------------------------------------------|
G|-----------------5---------------------------------------------|
D|--3--------------5------------------7------------------8-------|
A|--3--------------3------------------7------------------8-------|
E|--1---------------------------------5------------------6-------|


Stanza2:
    F		   C		      D		         Bb
e|---------------------------------------------------------------|
B|---------------------------------------------------------------|
G|-----------------5------------------7--------------------------|
D|--3--------------5------------------7------------------8-------|
A|--3--------------3------------------5------------------8-------|
E|--1----------------------------------------------------6-------|
Tuwing pag gising sa umaga ang iyong mukha
ang nais halikan at sambahin
Sa maghapon ay iniisip ka lamang
At ang mga nakaraan na kay saya

Refrain2: (refrain1 chords)
Bakit nga ba iyong puso’y sinugatan
Habang pagsisisi ay hindi na kailanman mawawala

Chorus2: (chorus1 chords)
Naaalala mo pa ba nung tayo’y magkasama pa
Iyong sinabi’t pinangako na tayo’y may pag-asa
Ngayon kahit siya ay akin sa kaniyang yakap at lambing
Ninanais ay ikaw pa rin, ikaw pa rin.

Adlib:
   F		     C			    D
e|---6s8-6-5-6-5-3-1-3------6s8-6-5-6-5-3-1---------|
B|------------------------------------------3-------|
G|--------------------------------------------------|
D|--------------------------------------------------|
A|--------------------------------------------------|
E|--------------------------------------------------|

	           Bb
e|----------------------*----------------------------|
B|----------------------*-nxt time n yung part n 2….-|
G|----------------------*-----hirap eh---------------|
D|------3-5-3-----------*----------------------------|
A|--3s5-------6s0-------*-----hehehe-----------------|
E|----------------------*----------------------------|

   F			   C				  D
e|---20-18-17-18-17-15-13-15-------20-18-17-18-17-15-17b-------|
B|-------------------------------------------------------15----|
G|-------------------------------------------------------------|
D|-------------------------------------------------------------|
A|-------------------------------------------------------------|
E|-------------------------------------------------------------|

              Bb
e|--------15-15s17b--20--15—17b~~~~--------|
B|--15-18----------------------------------|
G|-----------------------------------------|
D|-----------------------------------------|
A|-----------------------------------------|
E|-----------------------------------------|


Repeat Stanza1

Repeat Chorus1

Coda:
    F		   C		      A		        Bb
e|---------------------------------------------------------------|\
B|---------------------------------------------------------------| \
G|-----------------5---------------------------------------------|  2x
D|--3--------------5------------------7------------------8-------|  /
A|--3--------------3------------------7------------------8-------| /
E|--1---------------------------------5------------------6-------|/
	Ikaw pa rin 4x

End with F

yun lang "pakirate po :)"

            
            
Suggest correction
Creating personal tab
Creating personal tab
You can edit any tab online and save it as your Personal.

You can edit, replace or remove any tab part or add personal notes – all changes will be seen only by you.

Personal tabs can be accessed anytime from any device, even offline.
Learn more »
Give kudos to tab author, rate the tab!
1 2 3 4 5
comments
print report bad tab
1 comment total.
0 reply
wastedpj 10 Jul 22, 2006 08:26 PM

senxa... di ugma... better luck nxt tym

guest
You may want to rate the tab now too:
select rating
Wanna post a correction for this tab? Suggest correction