Oops, an error
Loading. Please wait.

Heading Out To The Highway tab

version 1
version 1

Whole song

Interactive

45,466 views 66 this week
1 commentread comment
1 2 3 4 5
x 10
add to favorites
×
Save as Personal and add changes to this tab that will be seen only by you. Learn more ›
×
You can save this tab as Personal to edit and correct it or add notes. All changes will be seen only by you. Learn more »
launch autoscroll
font size
0
reset
how to read this tab
guitar tuner
backing track
0:00
0:00
edit
Autoscroll
slow
fast
+/-
esc
set tempo
stop
Author
Unregistered
lyrics are at the end of the file

[Intro]
(Riff A) one time just guitar enter drums after

e|---------------------------------------------------------|
B|---------------------------------------------------------|
G|-----------------------5--4-----4--5--7------------------|
D|--------2--------------5--5-----5--5--7------2-----------|
A|--0--0--0--0--0--0--0--------0-----------0-0-0-0-0-0-0---|
E|---------------------------------------------------------|


e|--------------|
B|--------------|
G|-5--4--5--0---|End Riff A
D|-5--5--5--0---|
A|--------------|
E|--------------|


[Verse] 2x

e|--------------------------------------------------------|
B|--------------------------------------------------------|
G|--------------------------------------------------------|
D|--2------5--------------2----------------------2--------|
A|--0------3------5-------0-------3------5-------0--------|
E|----------------3---------------1------3----------------|


[Chorus]
           2x==============================
e|--------|--------------------------------|--------------|
B|--------|--------------------------------|--------------|
G|--------|--------------------------------|--------------|
D|--------|----7--------------7------------|--5-----------|
A|--2-----|----5----7---7-----5---7-----2--|--3----5------|
E|--0-----|---------5---5---------5-----0--|-------3------|

Play Riff A 2x
[Verse]
[Chorus] 1x

[Bridge] 4x

e|-----------------------|
B|-----------------------|
G|--------7------2-------|
D|-4------7------2-------|
A|-2---------------------|
E|-----------------------|


Lead

e|---------------------------------------------------------|
B|--19--17--15~---17b(18)-rb17--17b(19)-rb17-15--17b(18)---|
G|---------------------------------------------------------|
D|---------------------------------------------------------|
A|---------------------------------------------------------|
E|---------------------------------------------------------|

                                               Wide Vibrato
e|----------------------------------------------------------|
B|--b(19)~------19--17--15~--17b(18)-rb17--17b(19)~~~~~~~~~-|
G|----------------------------------------------------------|
D|----------------------------------------------------------|
A|----------------------------------------------------------|
E|----------------------------------------------------------|

[Verse]
[Chorus] 2x

End

e|----------------------------------------------------------|
B|----------------------------------------------------------|
G|----------------------------5-----4-------4---5--7~-------|
D|--5----------2------2-2-2---5-----5-------5---5--7~----2\-|
A|--3-----5----0------0-0-0--------------0---------------0\-|
E|--------3-------------------------------------------------|


The Music Shop BBS (619)423-4970  (San Diego, CA  USA)
Over 8,000 Guitar Tabs, pictures, construction docs, lessons,
interviews, Over 1000 Bass Tabs, sound files, lyrics, programs.
Also, free support for unsigned/indie bands email me a bio,
lyrics, pictures gig info, demo info sound files etc.,
http://www.netcom.com/~letostak/musicshp.html [info only]

===========================================================

h = hammeron                          ps = pick scrape
p = pulloff                           % = repeat phrase
~ = vibrato                           letostak@ix.netcom.com
b = bend                              + natural harmonic
/\ = Slide
* = Artificial Harmonic
x = ghost note
tr = trill

===========================================================

Hit'em boys
Well I've said it before, and I'll say it again
You get nothin' for nothin', expect it when
You're back seat drivin' and your hands ain't on the wheel
It's easy to go along with the crowd
And find later on that your say ain't allowed
Oh that's the way to find what you've been missin'

So I'm heading out to the highway
I got nothin' to lose at all
I'm goin' to do it my way
Take a chance before I fall
A chance before I fall

You can hang in a left or hang in a right
The choice it is yours to do as you might
The road is open wide to place your biddin'
Now, wherever you turn, wherever you go
If you get it wrong, at least you can know
There's miles and miles to put it back together

And I'm heading out to the highway
I got nothin' to lose at all
I'm goin' to do it my way
Take a chance before I fall
A chance before I fall

Makin' a curve or takin' the strain
On the decline, or out on the wain
Oh everybody breaks down sooner or later
We'll put it to rights, we'll square up and mend
Back on your feet to take the next bend
You weather every storm that's comin' at cha

And I'm heading out to the highway
I got nothin' to lose at all
I'm goin' to do it my way
Take a chance before I fall
A chance before I fall

            
            
Suggest correction
Creating personal tab
Creating personal tab
You can edit any tab online and save it as your Personal.

You can edit, replace or remove any tab part or add personal notes – all changes will be seen only by you.

Personal tabs can be accessed anytime from any device, even offline.
Learn more »
comments
print report bad tab
1 comment total.
+4 reply
comaboy 10 Sep 21, 2007 02:35 PM

E|-----------------------------|---------------------|
B|--------------------------1--|---0-----1--0--1--3--|
G|----------2---------------0--|---0-----0--0--0--2--|
D|----------2------------------|---------------------|
A|-0---0--------0--0--0--0-----|---------------------|
E|-----------------------------|---------------------|

E|----------------------------|-----------------------|
B|--------------------------1-|--0---1---0------------|
G|----------2---------------0-|--0---0---0------------|
D|----------2-----------------|----------0------------|
A|---0--0------0--0--0--0-----|-----------------------|
E|----------------------------|-----------------------|

it's a little bit easier!

guest
Wanna post a correction for this tab? Suggest correction