Oops, an error
Loading. Please wait.

Painkiller bass

version 1
version 1
32,958 views 36 this week
2 commentsread comments
1 2 3 4 5
x 9
add to favorites
×
Save as Personal and add changes to this tab that will be seen only by you. Learn more ›
×
You can save this tab as Personal to edit and correct it or add notes. All changes will be seen only by you. Learn more »
launch autoscroll
font size
0
reset
guitar tuner
backing track
0:00
0:00
edit
Autoscroll
slow
fast
+/-
esc
set tempo
stop
After seeing the ONLY bass tab on this website and was VERY wrong, I thought I'd correct 
This is the very first tab I've ever done so go easy on me. :)

All verses

G---------------------------------|--------------------------------|   X7
D---------------------------------|--------------------------------|
A-----------------------------1-1-|---------------------------1-1--|
E-0-0-0-0-0-0-0-0-0-0-0-0-0-0-----0-0-0-0-0-0-0-0-0-0-0-0-0-0------|

Chorus
G---------------------------------|---------------------------|
D---------------------------------|---------------------------|
A-000000000000000-5-3-2-000000000000000-2-3-5-----------------|
E---------------------------------|---------------------------|

Verse again
Then Chorus

Interlude
G---------------------------------|---------------------------|
D---------------------------------|---------------------------|
A-2-2-2-2-2-2-2-2-2-2-3-3-3-3-3-3-3-3-3-3-2-2-2-2-2-2-2-2-2-2-|
E---------------------------------|---------------------------|

Interlude cont.
G---------------------------------|---------------------------|  X4
D---------------------------------|---------------------------|
A---------------------------------|---------------------------|
E-2222222222222-3-3-2222222222222-5-5-------------------------|

G---------------------------------|---------------------------| X4
D---------------------------------|---------------------------|
A---------------------------------|---------------------------|
E-5555555555555-6-6-5555555555555-7-7-------------------------|

Awesome fast part
G---------------------------------|------------------------------|
D---------------------------------|------------------------------|
A-00000111333333-00013-000001113333333-00013-0-1-3-0-1-3-0-1-3---|
E---------------------------------|------------------------------|

G---------------------------------|---------------------------|
D---------------------------------|---------------------------|
A-013013013013013-----------------|---------------------------|
E---------------------------------|---------------------------|

Solo

G---------------------------------|---------------------------|
D---------------------------------|---------------------------|
A-4-4-4-4-4-4-4-4-4-4-4-4-4-4-4-4-|-4-4-4-4-4-4-4-4-4-4-4-4-2-|
E---------------------------------|---------------------------| X2

G---------------------------------|---------------------------|
D---------------------------------|---------------------------|
A---------------------------------|---------------------------|
E-2-2-2-2-2-2-2-2-2-2-2-2-2-2-2-2-|-2-2-2-2-2-2-2-2-2-2-2-2-0-| X2

G---------------------------------|---------------------------------|
D---------------------------------|---------------------------------|
A-4-4-4-4-4-4-4-4-4-4-4-4-4-4-4-4-|-2-2-2-2-2-2-2-2-2-2-2-2-2-2-2-2-|
E---------------------------------|---------------------------------|
								        X3
G---------------------------------|---------------------------------|
D---------------------------------|---------------------------------|
A-0-0-0-0-0-0-0-0-0-0-0-0-0-0-0-0-|-2-2-2-2-2-2-2-2-2-2-2-2-2-2-2-2-|
E---------------------------------|---------------------------------|

G---------------------------------|---------------------------------|
D---------------------------------|---------------------------------|
A-4-4-4-4-4-4-4-4-4-4-4-4-4-4-4-4-|-2-2-2-2-2-2-2-2-2-2-2-2-2-2-2-2-|
E---------------------------------|---------------------------------|

G---------------------------------|-------------|
D---------------------------------|-------------|
A-0-0-0-0-0-0-0-0-0-0-0-0-0-0-0-0-|-----------2-|
E---------------------------------|-4-0-2-3-4---|

G-------------------------------------|---------------------------------|
D-------------------------------------|---------------------------------|
A-----------------------------------0-|---------------------------------|
E-4-4-4-4-4-4-4-4-4-4-4-4-4-4-4-4-2---|-4-4-4-4-4-4-4-4-4-4-4-4-4-4-4-4-| X2

G-----------------------------|---|-----------------|
D-----------------------------|---|---------------2-|
A---------------------------0-|-4-|-5-0-0-------2---|
E-4-4-4-4-4-4-4-4-4-4-4-4-2---|---|-------4-2-4-----|

Verse

Chorus

"Wings of Steel" chorus
G-------------------------------------------------|---------|
D-------------------------------------------------|---2-0---|
A-2-2-2-2-2-2-2-2-2-2-2-2-2-2-2-2-2-2-2-2-2-2-2-2-|-2-----4-|
E-------------------------------------------------|---------|


G-------------------------------------------------|-----------|
D-------------------------------------------------|-----1-2---|
A-2-2-2-2-2-2-2-2-2-2-2-2-2-2-2-2-2-2-2-2-2-2-2-2-|-2-4-------|
E-------------------------------------------------|-----------|

Repeat interlude and "Awesome fast part"

Outro
G---------------------------------|---------------------------|
D---------------------------------|---------------------------|
A---------------2~-------------2~-|---------------------------|
E-0-0-----0-0--------0-0----------|---------------------------|

G---------------------------------|--------------------------------|   X7
D---------------------------------|--------------------------------|
A-----------------------------1-1-|---------------------------1-1--|
E-0-0-0-0-0-0-0-0-0-0-0-0-0-0-----0-0-0-0-0-0-0-0-0-0-0-0-0-0------|

Final Solo
G---------------------------------|-----------------------------|
D---------------------------------|-----------------------------|
A---------------------------------|-----------------------------|
E-2-2-2-2-2-2-2-2-2-2-2-2-2-2-2-2-|-2-2-2-2-2-2-2-2-2-2-2-2-0-3-| X3

G---------------------------------|-----------------------------|
D---------------------------------|-------------------------2-2-|
A---------------------------------|-----------------------------|
E-2-2-2-2-2-2-2-2-2-2-2-2-2-2-2-2-|-2-2-2-2-2-2-2-2-2-2-2-2-----|

"Can't...stop...the...Painkillerrrrrrrrrrrrrrr.....PAIN!"

G-----|---------|---|-|-|-|---|
D-----|---------|---|-|-|-|---|
A-----|---2-0---|---|-|-|-|---|
E-2-2-|-2-----4-|-3~|~|~|~|-2-|

There ya have it. Feel free to comment.

            
            
Suggest correction
Creating personal tab
Creating personal tab
You can edit any tab online and save it as your Personal.

You can edit, replace or remove any tab part or add personal notes – all changes will be seen only by you.

Personal tabs can be accessed anytime from any device, even offline.
Learn more »
comments
print report bad tab
2 comments total.
+3 reply
JEGoodwin 70 Feb 05, 2010 05:06 PM

for verse and other parts similar to this

G---------------------------------|
D---------------------------------|
A---------------------------------|
E-0-0-0-0-0-0-0-0-0-0-0-0-0-0-7-7-|

replace with this

G---------------------------------|
D---------------------------------|
A---------------------------------|
E-0-0-0-0-0-0-0-0-0-0-0-0-0-0-6-6-|

or for a faster feel I would recommend

G---------------------------------|
D---------------------------------|
A---------------------------------|
E-00000000000000000000000000006666|

I would also recommend you do something like this for other parts as well. There seems to be too much time between the notes.

+1 reply
Ikciwor 33 Mar 07, 2014 04:02 AM

Judas Priest is too cool to waste basist :( He should have more ambitious part

guest
Wanna post a correction for this tab? Suggest correction