Oops, an error
Loading. Please wait.
We have an official The Green Manalishi tab made by UG professional guitarists. Check out the tab »
×
1,679 views 3 this week
no commentswrite comment
1 2 3 4 5
2 more votes to show rating
add to favorites
×
Save as Personal and add changes to this tab that will be seen only by you. Learn more ›
×
You can save this tab as Personal to edit and correct it or add notes. All changes will be seen only by you. Learn more »
launch autoscroll
font size
0
reset
how to read this tab
guitar tuner
backing track
0:00
0:00
edit
Autoscroll
slow
fast
+/-
esc
set tempo
stop
Author
Tabbers playing skills
advanced ++
-------------------------------------------------------------------------------
                             THE GREEN MANALISHI - Judas Priest
-------------------------------------------------------------------------------


Tabbed By : Isaias Garcia (TexasFury)

Album: Unleashed In The East (1978 - Live) 

Tuning: Standard


Guitar (left - K.K. Downing)
   Intro
     W                   E   E  Q    E  E  E  E     E  E  E  E  E  E  E   E   
e|-------------------|--------------------------|---------------------------|
B|-------------------|--------------------8--8--|--------7--7---------------|
G|-------------------|--------------------7--7--|-----7--7--7-----9--9s--7--|
D|-------------------|--9s--7--9-------9--------|--------7--7-----9--9s--7--|
A|-------------------|--7s--5--7----------------|-----------------7--7s--5--|
E|-------------------|--------------------------|---------------------------|


    E   E  H        E  E     E  E  Q.     E  E   E     E   E  Q    E  E  E  E   
e|------------------------|-------------------------|--------------------------|
B|------------------------|-------------------------|--------------------8--8--|
G|--7s--5--5--------L--5--|--------5----------------|--------------------7--7--|
D|--7s--5--5--------L--5--|--------5---------7s--9--|--9s--7--9-------9--------|
A|--5s--3--3--------L--3--|-----2--3------5--5s--7--|--7s--5--7----------------|
E|------------------------|-------------------------|--------------------------|


    E  E  E  E  E  E  E   E     E   E  H        E  E     E  E  Q.     E  E   E   
e|---------------------------|------------------------|-------------------------|
B|-----7--7--7---------------|------------------------|-------------------------|
G|-----7--7--7-----9--9s--7--|--7s--5--5--------L--5--|--------5----------------|
D|-----7--7--7-----9--9s--7--|--7s--5--5--------L--5--|--------5---------7s--9--|
A|-----------------7--7s--5--|--5s--3--3--------L--3--|-----2--3------5--5s--7--|
E|---------------------------|------------------------|-------------------------|


    PM PM PM PM PM PM PM PM    PM PM PM PM PM PM PM PM    PM PM PM PM PM PM PM PM  
    E  E  E  E  E  E  E  E     E  E  E  E  E  E  E  E     E  E  E  E  E  E  E  E   
e|--------------------------|--------------------------|--------------------------|
B|--------------------------|--------------------------|--------------------------|
G|--------------------------|--------------------------|--------------------------|
D|--------------------------|--------------------------|--------------------------|
A|--2-----2--------2--------|--2-----------------------|--------------------------|
E|--0--0--0--0--0--0--0--0--|--0--0--0--0--0--0--0--0--|--0--0--0--0--0--0--0--0--|

                                      Verse 1
    PM PM PM PM PM   PM    PM    PM     PM PM PM PM PM PM PM PM    PM PM PM PM              
    E  E  E  E  E    E     E     E      E  E  E  E  E  E  E  E     E  E  E  E  E  E  E  E   
e|------------------(x)---(x)---(x)--|--------------------------|--------------------------|
B|-----------------------------------|--------------------------|--------------------------|
G|-----------------------------------|--------------------------|--------------------------|
D|-----------------------------------|--------------------------|--------------9--9--9-----|
A|-----------------------------------|--------------------------|--------------7--7--7-----|
E|--0--0--0--0--0----0-----0-----0---|--0--0--0--0--0--0--0--0--|--0--0--0--0-----------0--|


                                                                       PM PM PM PM PM PM PM PM  
        Q     E   E   E   E  E   E     E   E  E   E   E   E   Q        E  E  E  E  E  E  E  E   
e|----------------------------------|-------------------------------|--------------------------|
B|-------------------12--14-----12--|-----14-----12---L-------------|--------------------------|
G|-------------------12--14-----12--|-----14-----12---L-------------|--------------------------|
D|--12g14----14--14-----------------|--------------------14---L~----|--------------------------|
A|----------------------------------|-------------------------------|--------------------------|
E|----------------------------------|-------------------------------|--0--0--0--0--0--0--0--0--|


    PM PM PM PM                                                                                 
    E  E  E  E  E  E  E  E         Q     E   E   E   E  E   E     E   E  E   E   E   E   Q      
e|--------------------------|----------------------------------|-------------------------------|
B|--------------------------|-------------------12--14-----12--|-----14-----12---L-------------|
G|--------------------------|-------------------12--14-----12--|-----14-----12---L-------------|
D|--------------9--9--9-----|--12g14----14--14-----------------|--------------------14---L~----|
A|--------------7--7--7-----|----------------------------------|-------------------------------|
E|--0--0--0--0-----------0--|----------------------------------|-------------------------------|


                                                                            \                         
    H.           E  S S    H.           Q       E  E  E  E  E  E  E   E     E  E  E  S S E  E  E  E   
e|----------------------|--------------------|---------------------------|---------------------------|
B|----------------------|--------------------|---------------------------|------------------------9--|
G|----------------------|--------------------|---------------------------|------------------------9--|
D|----------------------|--------------------|-----2--4-----0--2---------|--9--7--9---------------9--|
A|--5------------5------|--7------------7----|-----------2---------------|--7--5--7------7--7--7--7--|
E|--3------------3--3-3-|--5------------5----|--------------------3p--0--|-----------0-0-0--0--0--0--|


                                      PM                                            
    E  E  E   E  H           E  E  E  E  E  S S E   E      E   E   E   E  H         
e|------------------------|----------------------------|---------------------------|
B|-----9--9s--7--7--------|----------------------------|---------------------------|
G|-----9--9s--7--7--------|------------------------12--|---L--12--12s--7--7--------|
D|-----9--9s--7--7--------|--9--7--9-----9--9-9----12--|---L--12--12s--7--7--------|
A|-----7--7s--5--5--------|--7--5--7-----7--7-7----10--|---L--10--10s--5--5--------|
E|--0--0--0---------------|-----------0----------------|---------------------------|


              PM PM PM PM                                          PM PM PM PM      
    E   E  E  E  E  E  E  E     E  E  E   E  H           E   E  E  E  E  E  E   E   
e|---------------------------|------------------------|----------------------------|
B|---------------------------|------------------------|----------------------------|
G|------------------------9--|-----9--9s--7--7--------|------------------------12--|
D|--9s--7--9--------------9--|-----9--9s--7--7--------|--9s--7--9--------------12--|
A|--7s--5--7--------------7--|-----7--7s--5--5--------|--7s--5--7--------------10--|
E|------------0--0--0--0-----|------------------------|------------0--0--0--0------|


                                PM PM PM PM PM PM PM PM    PM PM PM PM PM PM PM PM  
     E   E   E   E  H           E  E  E  E  E  E  E  E     E  E  E  E  E  E  E  E   
e|---------------------------|--------------------------|--------------------------|
B|---------------------------|--------------------------|--------------------------|
G|---L--12--12s--7--7--------|--------------------------|--------------------------|
D|---L--12--12s--7--7--------|--------------------------|--------------------------|
A|---L--10--10s--5--5--------|--------------------------|--------------------------|
E|---------------------------|--0--0--0--0--0--0--0--0--|--0--0--0--0--0--0--0--0--|

                                                        Verse 2
    PM PM PM PM PM PM PM PM    PM PM PM PM PM PM PM PM    PM PM PM PM PM PM PM PM  
    E  E  E  E  E  E  E  E     E  E  E  E  E  E  E  E     E  E  E  E  E  E  E  E   
e|--------------------------|--------------------------|--------------------------|
B|--------------------------|--------------------------|--------------------------|
G|--------------------------|--------------------------|--------------------------|
D|--------------------------|--------------------------|--------------------------|
A|--------------------------|--------------------------|--------------------------|
E|--0--0--0--0--0--0--0--0--|--0--0--0--0--0--0--0--0--|--0--0--0--0--0--0--0--0--|


    PM PM PM                                                                                    
    E  E  E  E  E  E  E  E         Q     E   E   E   E  E   E     E   E  E   E   E   E   Q      
e|--------------------------|----------------------------------|-------------------------------|
B|--------------------------|-------------------12--14-----12--|-----14-----12---L-------------|
G|--------------------------|-------------------12--14-----12--|-----14-----12---L-------------|
D|-----------9--9--9--9-----|--12g14----14--14-----------------|--------------------14---L~----|
A|-----------7--7--7--7-----|----------------------------------|-------------------------------|
E|--0--0--0--0--0--0--0--0--|----------------------------------|-------------------------------|


    PM PM PM PM PM PM PM PM    PM PM PM PM PM PM PM PM                                     
    E  E  E  E  E  E  E  E     E  E  E  E  E  E  E  E         Q     E   E   E   E  E   E   
e|--------------------------|--------------------------|----------------------------------|
B|--------------------------|--------------------------|-------------------12--14-----12--|
G|--------------------------|--------------------------|-------------------12--14-----12--|
D|--------------------------|--------------------------|--12g14----14--14-----------------|
A|--------------------------|--------------------------|----------------------------------|
E|--0--0--0--0--0--0--0--0--|--0--0--0--0--0--0--0--0--|----------------------------------|


    E   E  E   E   E   E   Q        H.           E   E     H.           Q     
e|-------------------------------|----------------------|--------------------|
B|-----14-----12---L-------------|----------------------|--------------------|
G|-----14-----12---L-------------|----------------------|--------------------|
D|--------------------14---L~----|----------------------|--------------------|
A|-------------------------------|--5------------5s--7--|--7------------7----|
E|-------------------------------|--3------------3s--5--|--5------------5----|


                                              PM PM PM PM PM                              
    E    E    E  E  E  E  E   E     E   E  E  E  S  S  E  E  E     E  E  E   E  H         
e|-------------------------------|------------------------------|------------------------|
B|-------------------------------|---------------------------9--|--L--9--9s--7--7--------|
G|-------------------------------|---------------------------9--|--L--9--9s--7--7--------|
D|-----<>2--<>4-----0--2---------|--9s--7--9-----------------9--|--L--9--9s--7--7--------|
A|---------------2---------------|--7s--5--7-----------------7--|--L--7--7s--5--5--------|
E|------------------------3p--0--|------------0--0--0--0--0-----|------------------------|


             PM                                                                      
    E  E  E  E  E  E  E   E      E   E   E   E  H           E   E  Q    E  E  E  E   
e|---------------------------|---------------------------|--------------------------|
B|---------------------------|---------------------------|-----------------------9--|
G|-----------------------12--|---L--12--12s--7--7--------|-----------------------9--|
D|--9--7--9--------------12--|---L--12--12s--7--7--------|--9s--7--9----9--9--9--9--|
A|--7--5--7--------------10--|---L--10--10s--5--5--------|--7s--5--7----7--7--7--7--|
E|-----------0--0--0--0------|---------------------------|--------------------------|


                                      PM                                                    
    E  E  E   E  H           E  E  E  E  E  E  E   E     E   E   E   E  Q    Q    H         
e|------------------------|---------------------------|------------------------------------|
B|--L------------7--------|---------------------------|------------------------------------|
G|--L------------7--------|-----------------------12--|-----12--12s--7--7------------------|
D|--L--9--9s--7--7--------|--9--7--9--------------12--|-----12--12s--7--7------------------|
A|--L--7--7s--5--5--------|--7--5--7--------------10--|-----10--10s--5--5------------------|
E|------------------------|-----------0--0--0--0------|------------------------------------|

  Guitar Solos
    Q     H         E    E      E     S  S H        E  E     E  E  S  S E  Q.     E    
e|---------------------------|----------------------------|---------------------------|
B|---------------------------|----------------------------|---------------------------|
G|--2b----2b--------Lpb--2b--|--Lpbr--Lp-0-2--------L--2--|--L--0--2p-0---------------|
D|---------------------------|----------------------------|-------------2--L------L/--|
A|---------------------------|----------------------------|---------------------------|
E|---------------------------|----------------------------|---------------------------|


    E   E   S   S  E   E   E    Q        E   E  Q    E  E  E  E     E  E  E  E  E  E  E  E   
e|-----12-------------12--------------|--------------------------|--------------------------|
B|---------15p-12---------15b---L~----|--------------------8--8--|--------7--7--------------|
G|----------------14------------------|--------------------7--7--|-----7--7--7-----9--9--7--|
D|------------------------------------|--9s--7--9-------9--------|--------7--7-----9--9--7--|
A|------------------------------------|--7s--5--7----------------|-----------------7--7--5--|
E|------------------------------------|--------------------------|--------------------------|


    E   E  H        E  E     E  E  Q.     E  Q       Q     Q     Q     Q      
e|------------------------|-----------------------|--------------------------|
B|------------------------|-----------------------|--------------------------|
G|--7s--5--5--------L--5--|--------5------7--7----|--------------------------|
D|--7s--5--5--------L--5--|--------5------7--7----|--------------------------|
A|--5s--3--3--------L--3--|-----2--3------5--5----|--5b----5b----5b----5b----|
E|------------------------|-----------------------|--------------------------|


    E    E  E  E   E  E  E  E     E  E  H        E   E    
e|-----------------------------|-------------------------|
B|-----------------------------|--8--7-------------------|
G|--------------------7--9--7--|--------9-----------14b--|
D|----------5--7s--9-----------|-------------------------|
A|-----5g7---------------------|-------------------------|
E|-----------------------------|-------------------------|


     E     S  S  E.     S  E     S   S  Q        E   E  Q    E  E  E  E     E  E  E  E  E  E  E  E   
e|--------------------------------------------|--------------------------|--------------------------|
B|--------15-12-------------------------------|--------------------8--8--|-----7--7--7--------------|
G|---Lpb--------14br----L--Lbr---Lp-12--------|--------------------7--7--|-----7--7--7-----9--9--7--|
D|-------------------------------------14~----|--9s--7--9-------9--------|-----7--7--7-----9--9--7--|
A|--------------------------------------------|--7s--5--7----------------|-----------------7--7--5--|
E|--------------------------------------------|--------------------------|--------------------------|


                                                     PM PM PM PM PM PM PM PM  
    E   E  H        E  E     E  E  Q.     E  Q       E  E  E  E  E  E  E  E   
e|------------------------|-----------------------|--------------------------|
B|------------------------|-----------------------|--------------------------|
G|--7s--5--5--------L--5--|--------5------7--7----|--------------------------|
D|--7s--5--5--------L--5--|--------5------7--7----|--9-----9-----9-----9-----|
A|--5s--3--3--------L--3--|-----2--3------5--5----|--7-----7-----7-----7-----|
E|------------------------|-----------------------|--0--0--0--0--0--0--0--0--|


    PM PM PM PM PM PM         PM PM PM PM PM PM PM PM    PM PM PM PM PM PM PM PM  
    E  E  E  E  E  E  Q       E  E  E  E  E  E  E  E     E  E  E  E  E  E  E  E   
e|-------------------------|--------------------------|--------------------------|
B|-------------------------|--------------------------|--------------------------|
G|-------------------------|--------------------------|--------------------------|
D|--9-----9-----9-----9----|--------------------------|--------------------------|
A|--7-----7-----7-----7----|--------------------------|--------------------------|
E|--0--0--0--0--0--0--0----|--0--0--0--0--0--0--0--0--|--0--0--0--0--0--0--0--0--|

  Verse 3
    PM PM PM PM PM PM PM PM    PM PM PM                                                    
    E  E  E  E  E  E  E  E     E  E  E  E  E  E  E  E         Q     E   E   E   E  E   E   
e|--------------------------|--------------------------|----------------------------------|
B|--------------------------|--------------------------|-------------------12--14-----12--|
G|--------------------------|--------------------------|-------------------12--14-----12--|
D|--------------------------|-----------9--9--9--9-----|--12g14----14--14-----------------|
A|--------------------------|-----------7--7--7--7-----|----------------------------------|
E|--0--0--0--0--0--0--0--0--|--0--0--0--------------0--|----------------------------------|


                                    PM PM PM PM PM PM PM PM    PM PM PM PM PM PM PM PM  
    E   E  E   E   E   E   Q        E  E  E  E  E  E  E  E     E  E  E  E  E  E  E  E   
e|-------------------------------|--------------------------|--------------------------|
B|-----14-----12---L-------------|--------------------------|--------------------------|
G|-----14-----12---L-------------|--------------------------|--------------------------|
D|--------------------14---L~----|--------------------------|--------------------------|
A|-------------------------------|--------------------------|--------------------------|
E|-------------------------------|--0--0--0--0--0--0--0--0--|--0--0--0--0--0--0--0--0--|


        Q     E   E   E   E  E   E     E   E  E   E   E   E   Q        H.           E  E   
e|----------------------------------|-------------------------------|---------------------|
B|-------------------12--14-----12--|-----14-----12---L-------------|---------------------|
G|-------------------12--14-----12--|-----14-----12---L-------------|---------------------|
D|--12g14----14--14-----------------|--------------------14---L~----|---------------------|
A|----------------------------------|-------------------------------|--5------------5--5--|
E|----------------------------------|-------------------------------|--3------------3--3--|

                                                   Outro
    H.           Q       E  E  E  E  E  E  E   E     E   E  Q.     E  E  E   
e|--------------------|---------------------------|-------------------------|
B|--------------------|---------------------------|----------------8--8--8--|
G|--------------------|-----2--4------------------|----------------7--7--7--|
D|--------------------|--------------0--2---------|--9s--7--9------9--9--9--|
A|--7------------7----|-----------2---------------|--7s--5--7---------------|
E|--5------------5----|--------------------3p--0--|-------------------------|


    E  E  E  E  E  E  E  E     E   E  H        E  E     E  E  Q.     E  E   E   
e|--------------------------|------------------------|-------------------------|
B|-----7--7--7--------------|------------------------|-------------------------|
G|-----7--7--7-----9--9--7--|--7s--5--5--------L--5--|--L--4--5------7--7------|
D|-----7--7--7-----9--9--7--|--7s--5--5--------L--5--|--L--4--5------7--7------|
A|-----------------7--7--5--|--5s--3--3--------L--3--|--L--2--3------5--5s--7--|
E|--------------------------|------------------------|-------------------------|


    E   E  Q.     E  E  E     E  E  E  E  E  E  E  E     E   E  H        E  E   
e|-------------------------|--------------------------|------------------------|
B|----------------8--8--8--|-----7--7--7--------------|------------------------|
G|----------------7--7--7--|-----7--7--7-----9--9--7--|--7s--5--5--------L--5--|
D|----------------9--9--9--|-----7--7--7-----9--9--7--|--7s--5--5--------L--5--|
A|--7s--5--7---------------|-----------------7--7--5--|--5s--3--3--------L--3--|
E|-------------------------|--------------------------|------------------------|


    E  E  Q.     E  E  E     E   E  Q.     E  E  E     E  E  E  E  E  E  E  E   
e|------------------------|-------------------------|--------------------------|
B|------------------------|----------------8--8--8--|-----7--7--7--------------|
G|--L--4--5---------------|----------------7--7--7--|-----7--7--7-----9--9--7--|
D|--L--4--5------7--7--9--|--9s--7--9------9--9--9--|-----7--7--7-----9--9--7--|
A|--L--2--3------5--5--7--|--7s--5--7---------------|-----------------7--7--5--|
E|------------------------|-------------------------|--------------------------|


    E   E  H        E  E     E  E  Q.     E  Q       E   E  Q.     E  E  E   
e|------------------------|-----------------------|-------------------------|
B|------------------------|-----------------------|----------------8--8--8--|
G|--7s--5--5--------L--5--|--L--4--5------7--7----|----------------7--7--7--|
D|--7s--5--5--------L--5--|--L--4--5------7--7----|--9s--7--9------9--9--9--|
A|--5s--3--3--------L--3--|--L--2--3------5--5----|--7s--5--7---------------|
E|------------------------|-----------------------|-------------------------|


    E  E  E  E  E  E  E  E     E   E  H        E  E     E  E  Q.     E  Q     
e|--------------------------|------------------------|-----------------------|
B|-----7--7--7--------------|------------------------|-----------------------|
G|-----7--7--7-----9--9--7--|--7s--5--5--------L--5--|--L--4--5------7--7----|
D|-----7--7--7-----9--9--7--|--7s--5--5--------L--5--|--L--4--5------7--7----|
A|-----------------7--7--5--|--5s--3--3--------L--3--|--L--2--3------5--5----|
E|--------------------------|------------------------|-----------------------|


    E  E  E  E  E  E  E  E     E  E  E  E  E  E  E  E   
e|--------------------------|--------------------------|
B|--------------------------|--------------------------|
G|--------------------------|--------------------------|
D|-----5--4-----------------|--------------------5--4--|
A|--------------5--7--2--5--|--3--2-----------2--------|
E|--0--------7--------------|--------0--2--3-----------|

   
    Q    Q    H                                          
e|-----------------------------------------------------||
B|-----------------------------------------------------||
G|-----------------------------------------------------||
D|-----------------------------------------------------||
A|--7--------------------------------------------------||
E|-----------------------------------------------------||



Guitar (right - Glenn Tipton)
   Intro
     W                   E   E  Q.     E  E  E     E  E  E  E  E  E  E   E   
e|-------------------|-------------------------|---------------------------|
B|-------------------|----------------8--8--8--|-----7--7--7---------------|
G|-------------------|----------------7--7--7--|-----7--7--7-----9--9s--7--|
D|-------------------|--9s--7--9------9--9--9--|-----7--7--7-----9--9s--7--|
A|-------------------|--7s--5--7---------------|-----------------7--7s--5--|
E|-------------------|-------------------------|---------------------------|


                                PM                                                                   
    E   E  H        E  E     E  E  Q.     E  E   E     H        E  E  S E.     H        E  E  S E.   
e|------------------------|-------------------------|-----------------------|-----------------------|
B|------------------------|-------------------------|-----------------------|-----------------------|
G|--7s--5--5--------L--5--|--------5----------------|-----------------------|-----------------------|
D|--7s--5--5--------L--5--|--------5----------------|--------------4--L-5---|--7--------L--5--L-4---|
A|--5s--3--3--------L--3--|-----2--3------5--5s--7--|--7--------L-----------|-----------------------|
E|------------------------|-------------------------|-----------------------|-----------------------|


                                                                                      >      
    W                   H        E  E    E  E     W                   H.              Q      
e|-------------------|-------------------------|-------------------|------------------------|
B|-------------------|----------------------8--|-------------------|------------------------|
G|-------------------|-------------------------|--9----------------|--L------------9g14\----|
D|-------------------|------------------/9-----|-------------------|------------------------|
A|--7----------------|--L--------L--L\---------|-------------------|------------------------|
E|-------------------|-------------------------|-------------------|------------------------|

                                                       Verse 1
    PM PM PM PM PM PM PM PM    PM PM PM PM PM PM PM PM    PM PM PM PM PM PM PM PM  
    E  E  E  E  E  E  E  E     E  E  E  E  E  E  E  E     E  E  E  E  E  E  E  E   
e|--------------------------|--------------------------|--------------------------|
B|--------------------------|--------------------------|--------------------------|
G|--------------------------|--------------------------|--------------------------|
D|--------------------------|--------------------------|--------------------------|
A|--------------------------|--------------------------|--------------------------|
E|--0--0--0--0--0--0--0--0--|--0--0--0--0--0--0--0--0--|--0--0--0--0--0--0--0--0--|


    PM PM PM                         PM PM                                        
    E  E  E  E  E  E  E  E     E  E  E  E  E  E  E  E     E  E  E  E  E  E  Q     
e|--------------------------|--------------------------|-------------------------|
B|--------------------------|--------------------------|-------------------------|
G|--------------------------|--------------------------|-------------------------|
D|-----------9--L--9--9--9--|--------------------------|-------------------------|
A|-----------7--L--7--7--7--|--2--2--------5--7-----5--|-----7-----5--L--2--L----|
E|--0--0--0-----------------|--0--0--0--0--3--5-----3--|-----5-----3--L--0--L----|


    PM PM PM PM PM PM PM PM    PM PM PM PM                      PM PM              
    E  E  E  E  E  E  E  E     E  E  E  E  E  E  E  E     E  E  E  E  E  E  E  E   
e|--------------------------|--------------------------|--------------------------|
B|--------------------------|--------------------------|--------------------------|
G|--------------------------|--------------------------|--------------------------|
D|--------------------------|--------------9--9--------|--------------------------|
A|--------------------------|--------------7--7--------|--2--2--------5--7-----5--|
E|--0--0--0--0--0--0--0--0--|--0--0--0--0--------0--0--|--0--0--0--0--3--5-----3--|


                                                                                    PM               
    E  E  E  E  E  E  Q       H        E  E  E  S S    W                   E  E  E  E  E  E  E   E   
e|-------------------------|------------------------|-------------------|---------------------------|
B|-------------------------|------------------------|-------------------|---------------------------|
G|-------------------------|------------------------|-------------------|---------------------------|
D|-------------------------|------------------------|-------------------|-----2--4-----0--2---------|
A|-----7-----5--L--2--2----|--5--------L--5--L------|--7----------------|-----------2---------------|
E|-----5-----3--L--0--0----|--3--------L--3--L--3-3-|--5----------------|--------------------3p--0--|


    E   E  H        E  E     E  E  Q    H           E   E  H        E  E     E  E  Q    H         
e|------------------------|----------------------|------------------------|----------------------|
B|---------------------8--|--------8-------------|---------------------8--|--------8-------------|
G|---------------------7--|--------7----7--------|---------------------7--|--------7----7--------|
D|--9p--7--9--------L--9--|-----x--9----7--------|--9s--7--9--------L-----|-----x--7----7--------|
A|--7---L--7--------L-----|-----x-------5--------|--7s--5--7--------L-----|-----x-------5--------|
E|------------------------|----------------------|------------------------|----------------------|


    E   E  H        E  E     E  E  Q    H           E   E  H        E  E     E  E  Q    H         
e|------------------------|----------------------|------------------------|----------------------|
B|---------------------8--|--------8-------------|---------------------8--|--------8-------------|
G|---------------------7--|--------7----7--------|---------------------7--|--------7----7--------|
D|--9p--7--9--------L--9--|-----x--9----7--------|--9s--7--9--------L-----|-----x--7----7--------|
A|--7---L--7--------L-----|-----x-------5--------|--7s--5--7--------L-----|-----x-------5--------|
E|------------------------|----------------------|------------------------|----------------------|


                                            PM PM PM PM PM PM PM PM    PM PM PM PM PM PM PM PM  
    W                   W                   E  E  E  E  E  E  E  E     E  E  E  E  E  E  E  E   
e|-------------------|-------------------|--------------------------|--------------------------|
B|-------------------|-------------------|--------------------------|--------------------------|
G|-------------------|-------------------|--------------------------|--------------------------|
D|-------------------|-------------------|--------------------------|--------------------------|
A|-------------------|-------------------|--------------------------|--------------------------|
E|--0----------------|--L----------------|--0--0--0--0--0--0--0--0--|--0--0--0--0--0--0--0--0--|

  Verse 2
    PM PM PM PM PM PM PM PM    PM PM PM PM                         PM              
    E  E  E  E  E  E  E  E     E  E  E  E  E  E  E  E     E  E  E  E  E  E  E  E   
e|--------------------------|--------------------------|--------------------------|
B|--------------------------|--------------------------|--------------------------|
G|--------------------------|--------------------------|--------------------------|
D|--------------------------|--------------9--9--9--9--|--------------------------|
A|--------------------------|--------------7--7--7--7--|--2--2--2-----5--7-----5--|
E|--0--0--0--0--0--0--0--0--|--0--0--0--0--0--0--0--0--|--0--0--0--0--3--5-----3--|


                              PM PM PM PM PM PM PM PM    PM PM PM                 
    E  E  E  E  E  E  Q       E  E  E  E  E  E  E  E     E  E  E  E  E  E  E  E   
e|-------------------------|--------------------------|--------------------------|
B|-------------------------|--------------------------|--------------------------|
G|-------------------------|--------------------------|--------------------------|
D|-------------------------|--------------------------|--------------------------|
A|-----7-----5--L--2--2----|--------------------------|--------------------------|
E|-----5-----3--L--0--0----|--0--0--0--0--0--0--0--0--|--0--0--0--0--0--0--0--0--|


          PM PM                                                      PM PM                         
    E  E  E  E  E  E  E  E     E  E  E  E  E  E  Q       H        E  E  E  E     W                 
e|--------------------------|-------------------------|-----------------------|-------------------|
B|--------------------------|-------------------------|-----------------------|-------------------|
G|--------------------------|-------------------------|-----------------------|-------------------|
D|--------------------------|-------------------------|-----------------------|-------------------|
A|--2--2--------5--7-----5--|-----7-----5--L--2--L----|--5--------L--5--5--5--|--7----------------|
E|--0--0--0--0--3--5-----3--|-----5-----3--L--0--L----|--3--------L--3--3--3--|--5----------------|


             PM                                                                                       
    E  E  E  E  E  E  E  E     E   E  H        E  E     E  E  Q    H           E   E  H        E  E   
e|--------------------------|------------------------|----------------------|------------------------|
B|--------------------------|---------------------8--|--------8-------------|---------------------8--|
G|--------------------------|---------------------7--|--------7----7--------|---------------------7--|
D|-----5--4-----------------|--9p--7--9--------L--9--|-----x--9----7--------|--9s--7--9--------L-----|
A|--------------5--7--------|--7---L--7--------L-----|-----x-------5--------|--7s--5--7--------L-----|
E|-----------7--------3--2--|------------------------|----------------------|------------------------|


    E  E  Q    H           E   E  H        E  E     E  E  Q    H           E   E  Q.     E  E   E   
e|----------------------|------------------------|----------------------|--------------------------|
B|--------8-------------|------------------------|----------------------|--------------------------|
G|--------7----7--------|---------------------7--|--------7----7--------|----------------------12--|
D|-----x--7----7--------|--9p--7--9--------L-----|--------9----7--------|--9p--7--9------9-----12--|
A|-----x-------5--------|--7---L--7--------L-----|-----7-------5--------|--7---L--7------7---------|
E|----------------------|------------------------|----------------------|--------------------------|

                                     Guitar Solos
        PM                                                                              
    E   E   Q    Q    Q    H           H        E  E  E  E     E  E  E  E  E  E  E  E   
e|----------------------------------|-----------------------|--------------------------|
B|----------------------------------|--------------8--8--8--|--------------------------|
G|---------12----7------------------|--------------7--7--7--|-----7--7--7-----9--9--7--|
D|---------12----7------------------|--------------9--9--9--|-----7--7--7-----9--9--7--|
A|-----12--------5------------------|-----------------------|-----5--5--5-----7--7--5--|
E|----------------------------------|--0--------L-----------|--------------------------|


                                PM                                            
    E   E  H        E  E     E  E  Q.     E  Q         Q      H.              
e|------------------------|------------------------|-------------------------|
B|------------------------|------------------------|--15b----15b~------------|
G|--7s--5--5--------L--5--|--------5---------------|-------------------------|
D|--7s--5--5--------L--5--|--------5---------------|-------------------------|
A|--5s--3--3--------L--3--|-----2--3------5--L/----|-------------------------|
E|------------------------|------------------------|-------------------------|


    |---3---|                                            |----3---|              
    E   E   E   H          E     S  S     S  E.    Q     E   E    E   S   E   S  
e|--12--14--15--15b---------Lpb--12----|--12-------------12----------------------|
B|----------------------------------14-|-----15b----L--------15p--12------12--15-|
G|-------------------------------------|------------------------------14b--------|
D|-------------------------------------|-----------------------------------------|
A|-------------------------------------|-----------------------------------------|
E|-------------------------------------|-----------------------------------------|


                 |-----3-----|                                                  
    S  S  S  S   E      E    E   S   S  S  S  S  E.     E   E  Q.     E  E  E   
e|----------------------------------------------------|-------------------------|
B|--12----12------------------------------------------|----------------8--8--8--|
G|-----14----14b--Lpbr---Lp--12------------------12---|----------------7--7--7--|
D|-------------------------------14p-12----12-14------|--9s--7--9------9--9--9--|
A|--------------------------------------14------------|--7s--5--7---------------|
E|----------------------------------------------------|-------------------------|


                                                           PM                 
    E  E  E  E  E  E  E  E     E   E  H        E  E     E  E  Q.     E  Q     
e|--------------------------|------------------------|-----------------------|
B|-----7--7--7--------------|------------------------|-----------------------|
G|-----7--7--7-----9--9--7--|--7s--5--5--------L--5--|--------5------7--7----|
D|-----7--7--7-----9--9--7--|--7s--5--5--------L--5--|--------5------7--7----|
A|-----------------7--7--5--|--5s--3--3--------L--3--|-----2--3------5--5----|
E|--------------------------|------------------------|-----------------------|


     TP TP   TP TP   TP TP   TP TP TP TP    TP TP   TP TP TP TP TP TPTP  TP TP TP     
     S  E.   S  E.   S  E.   S  S  S  S     S  E.   S  S  S  S  S  S S   S  S  S S S  
e|--------------------------------------|--------------------------------------------|
B|--15-17---15-17---15-17---15-17-15-17-|--20-17---12-15-12-15-12-10-8--10-10-10-8---|
G|--------------------------------------|------------------------------------------9-|
D|--------------------------------------|--------------------------------------------|
A|--------------------------------------|--------------------------------------------|
E|--------------------------------------|--------------------------------------------|


    H        E   E    E   E      E   E   E   E   E   E   Q        W                 
e|---------------------------|---------------------------------|-------------------|
B|---------------------------|---------------------------------|-------------------|
G|--L--------L--12b--12------|--12--12-------------------------|-------------------|
D|-----------------------14--|----------14--12--14------12\----|-------------------|
A|---------------------------|----------------------14---------|--7----------------|
E|---------------------------|---------------------------------|-------------------|


                                PM PM PM PM PM PM PM PM    PM PM PM PM PM PM PM PM  
    H        E  E      Q        E  E  E  E  E  E  E  E     E  E  E  E  E  E  E  E   
e|---------------------------|--------------------------|--------------------------|
B|---------------------------|--------------------------|--------------------------|
G|---------------------------|--------------------------|--------------------------|
D|---------------------------|--------------------------|--------------------------|
A|--L--------L--L\--5g15\----|--------------------------|--------------------------|
E|---------------------------|--0--0--0--0--0--0--0--0--|--0--0--0--0--0--0--0--0--|

  Verse 3
    PM PM PM PM PM PM PM PM    PM PM PM PM                      PM PM              
    E  E  E  E  E  E  E  E     E  E  E  E  E  E  E  E     E  E  E  E  E  E  E  E   
e|--------------------------|--------------------------|--------------------------|
B|--------------------------|--------------------------|--------------------------|
G|--------------------------|--------------------------|--------------------------|
D|--------------------------|--------------9--9--9-----|--------------------------|
A|--------------------------|--------------7--7--7-----|--2--2--------5--7-----5--|
E|--0--0--0--0--0--0--0--0--|--0--0--0--0-----------0--|--0--0--0--0--3--5-----3--|


                              PM PM PM PM PM PM PM PM    PM PM PM PM              
    E  E  E  E  E  E  Q       E  E  E  E  E  E  E  E     E  E  E  E  E  E  E  E   
e|-------------------------|--------------------------|--------------------------|
B|-------------------------|--------------------------|--------------------------|
G|-------------------------|--------------------------|--------------------------|
D|-------------------------|--------------------------|--------------9--9--9--9--|
A|-----7-----5--L--2--L----|--------------------------|--------------7--7--7--7--|
E|-----5-----3--L--0--L----|--0--0--0--0--0--0--0--0--|--0--0--0--0--------------|


    E  E  E  E  E  E  E  E     E  E  E  E  E  E  Q       W                   W                 
e|--------------------------|-------------------------|-------------------|-------------------|
B|--------------------------|-------------------------|-------------------|-------------------|
G|--------------------------|-------------------------|-------------------|-------------------|
D|--------------------------|-------------------------|-------------------|-------------------|
A|--2--2--2--2--5--7-----5--|-----7-----5--L--2--2----|--5----------------|--7----------------|
E|--0--0--0--0--3--5-----3--|-----5-----3--L--0--0----|--3----------------|--5----------------|

                             Outro
    E  E  E  E  E  E  E  E     E   E  Q.     E  S E.     H        E  E  S E.     W                 
e|--------------------------|-------------------------|-----------------------|-------------------|
B|--------------------------|-------------------------|-----------------------|-------------------|
G|-----4--------------------|-------------------------|-----------------------|-------------------|
D|--------4-----------------|--9s--7--9------4--L-5---|--7--------L--5--L-4---|-------------------|
A|--------------5--7--------|--7s--5--7---------------|-----------------------|--7----------------|
E|-----------7--------3--2--|-------------------------|-----------------------|-------------------|


    H.           E  E      H        E  E  S E.     H        E   E  E  E     W                 
e|----------------------|-----------------------|------------------------|-------------------|
B|----------------------|-----------------------|---------------------8--|-------------------|
G|----------------------|-----------------------|------------------------|--9----------------|
D|----------------------|--------------4--L-5---|--7--------L--/9--L-----|-------------------|
A|--L------------L--L\--|--7--------L-----------|------------------------|-------------------|
E|----------------------|-----------------------|------------------------|-------------------|


    H        E  E      Q        H        E  E  S E.     H        E  E  S E.     W                 
e|---------------------------|-----------------------|-----------------------|-------------------|
B|---------------------------|-----------------------|-----------------------|-------------------|
G|--L--------L--L\--6g21\----|-----------------------|-----------------------|-------------------|
D|---------------------------|--------------4--L-5---|--7--------L--5--L-4---|-------------------|
A|---------------------------|--7--------L-----------|-----------------------|--7----------------|
E|---------------------------|-----------------------|-----------------------|-------------------|


    H.           E  E      H        E  E  S E.     H        E   E  E  E     W                 
e|----------------------|-----------------------|------------------------|-------------------|
B|----------------------|-----------------------|---------------------8--|-------------------|
G|----------------------|-----------------------|------------------------|--9----------------|
D|----------------------|--------------4--L-5---|--7--------L--/9--L-----|-------------------|
A|--L------------L--L\--|--7--------L-----------|------------------------|-------------------|
E|----------------------|-----------------------|------------------------|-------------------|


    W                   E  E  E  E  E  E  E  E     E  E  E  E  E  E  E  E   
e|-------------------|--------------------------|--------------------------|
B|-------------------|--------------------------|--------------------------|
G|--L----------------|--------------------------|--------------------------|
D|-------------------|-----5--4-----------------|--------------------5--4--|
A|-------------------|--------------5--7--2--5--|--3--2-----------2--------|
E|-------------------|--0--------7--------------|--------0--2--3-----------|

   
    Q    Q    H                                          
e|-----------------------------------------------------||
B|-----------------------------------------------------||
G|--9--------------------------------------------------||
D|--9--------------------------------------------------||
A|--7--------------------------------------------------||
E|-----------------------------------------------------||



Duration Legend
---------------
W - whole
H - half
Q - quarter
E - 8th
S - 16th
T - 32nd
X - 64th
. - note dotted
|-n-|  - n-tuplets


Tablature Legend
----------------
L - tied note
x - dead note
g - grace note
(n) - ghost note
> - accentuded note
NH - natural harmonic
AH - artificial harmonic
TH - tapped harmonic
SH - semi harmonic
PH - pitch harmonic
h - hammer on
p - pull off
b - bend
br - bendRelease
pb - preBend
pbr - preBendRelease
brb - bendReleaseBend
\n/ - tremolo bar dip
\n - tremolo bar dive
-/n - tremolo bar Release up
/n\ - tremolo bar inverted dip
/n - tremolo bar return
-\n - tremolo bar Release down
S - shift slide
s - legato slide
/ -  slide into from below or out of upwards
\ -  slide into from above or out of downwards
~ - vibrato
W - wide vibrato
tr - trill
TP - tremolo picking
T - tapping
S - slap
P - pop
< - fade in
^ - brush up
v - brush down

            
            
Suggest correction
Creating personal tab
Creating personal tab
You can edit any tab online and save it as your Personal.

You can edit, replace or remove any tab part or add personal notes – all changes will be seen only by you.

Personal tabs can be accessed anytime from any device, even offline.
Learn more »
Give kudos to tab author, rate the tab!
1 2 3 4 5
comments
print report bad tab
guest
You may want to rate the tab now too:
select rating
Wanna post a correction for this tab? Suggest correction