Oops, an error
Loading. Please wait.

Somewhere Over The Rainbow intro tab

version 1
version 1

Intro

Whole song

Interactive

10,957 views 21 this week
4 commentsread comments
1 2 3 4 5
x 11
add to favorites
×
Save as Personal and add changes to this tab that will be seen only by you. Learn more ›
×
You can save this tab as Personal to edit and correct it or add notes. All changes will be seen only by you. Learn more »
launch autoscroll
font size
0
reset
how to read this tab
guitar tuner
edit
Autoscroll
slow
fast
+/-
esc
set tempo
stop
somewhere over the rainbow intro!!!
guitar


-----------------------------------------------------
---3--------------------3----------3-------3---------
-------------------------------------3--2----0--2--3-
------5--4--0--2--4--5-----2--0----------------------
-----------------------------------------------------
-----------------------------------------------------



-----------------------------------------------------
-----2--3---------3----------------------------------
--0--------0--2--------------------------------------
-----------------------------------------------------
-----------------------------------------------------
-----------------------------------------------------

            
            
Suggest correction
Creating personal tab
Creating personal tab
You can edit any tab online and save it as your Personal.

You can edit, replace or remove any tab part or add personal notes – all changes will be seen only by you.

Personal tabs can be accessed anytime from any device, even offline.
Learn more »
comments
print report bad tab
4 comments total. Showing first comments.
0 reply
ThE HiPpOs114 10 Apr 25, 2002 08:00 PM

these tabs are good and accurate but I need the rest of the song plz!!! TMNT

0 reply
frusciante_god 10 Jan 23, 2003 07:00 PM

not exactly accurate but sounds good with jimi hendrix's version

b -5-7-9-7-8-7-8-9-|


b -5-7-8-7-|


b -5-7b8r7-7-8-7-8-9-|


e ---------8h9p8|
b -5-7-8-7------|


Constructive criticism is always welcome

0 reply
srv_king 60 May 18, 2007 09:57 AM

you played notes in the wrong octave. this sounds way off to me

guest
Wanna post a correction for this tab? Suggest correction