Oops, an error
Loading. Please wait.

Bumalik Ka Lang intro tab

594 views 1 this week
no commentswrite comment
1 2 3 4 5
3 more votes to show rating
add to favorites
×
Save as Personal and add changes to this tab that will be seen only by you. Learn more ›
×
You can save this tab as Personal to edit and correct it or add notes. All changes will be seen only by you. Learn more »
launch autoscroll
font size
0
reset
how to read this tab
guitar tuner
edit
Autoscroll
slow
fast
+/-
esc
set tempo
stop
Difficulty
Tabber: Aldren Baniel
        Los Baños, Laguna
http://www.dr3nx.tk
e-mail: aldrenbaniel@yahoo.com

Title: Bumalik Ka Lang
Artist: Julia Clarete

Chords Used: D Bm Em A

Intro:
   D                                Bm
e|-2--0--2-2-0h2--0h2--0h2--0--------|--2--0--2-2-0h2--0h2--0h2--0---------|
B|-3--------------------------3v-----|--3--------------------------3v------|
G|-2---------------------------------|--4----------------------------------|
D|-0---------------------------------|--4----------------------------------|
A|-----------------------------------|--2----------------------------------|
E|-----------------------------------|-------------------------------------|


   Em                                A
e|-0--0--2-2-0h2--0h2--0h2--0-------|--0--0--2-2-0h2--0h2--0h2--0---------|
B|-0--------------------------3v----|--2---------------------------3v-----|
G|-0--------------------------------|--2----------------------------------|
D|-2--------------------------------|--2----------------------------------|
A|-2--------------------------------|--0----------------------------------|
E|-0--------------------------------|-------------------------------------|

Verse I

Magandang umaga
Nandyan ka na pala
Di halos makatulog
Sa pag-aalala
Kamusta naman don?
Masaya ka naman ba?
Tandaan mo lang
Pag doo’y sawa ka na 

Refrain:

Bumalik sa akin
Nangangakong
Ako’y maghihintay sayo
Tuparin mo ang iyong pangako
Buuin ang puso ko
Bumalik ka lamang 

Verse II

Ilang taon na bang dumaan
Ilang taon pa ba dito sa tagpuan
Mag-isa pa ring ngumingiti
Naghihintay pa rin sayong pagbabalik 

Refrain:
Bumalik ka na sa akin
Nangangakong ako’y maghihintay sayo
Tuparin mo ang iyong pangakong
Buuin ang puso ko ohh
Bumalik ka lamang 

Chorus:

Bumalik, bumalik ka lang
Bumalik, bumalik ka lang
Bumalik, bumalik ka lang 

Please paki rate naman
first time e
tapos ako pa lang naman ang meron nito


This is my first time to do a tab, thanks to edmond for the assist.
This song is dedicated to my bestdfriend.

December 11, 2006
Monday 5:00 PM

Muzta mga ka-jamming ko jan sina....... "Agugu", "Kangke", "Kulot", "Lueng", "Damaso", "Kalyo", eric
"dong", kenneth, Kim, David, Shano, Melsin, Leigh, marlon "bakla" 
and ate marge.

            
            
Suggest correction
Creating personal tab
Creating personal tab
You can edit any tab online and save it as your Personal.

You can edit, replace or remove any tab part or add personal notes – all changes will be seen only by you.

Personal tabs can be accessed anytime from any device, even offline.
Learn more »
Give kudos to tab author, rate the tab!
1 2 3 4 5
comments
print report bad tab
guest
Wanna post a correction for this tab? Suggest correction