Oops, an error
Loading. Please wait.

Somebody Is Waiting For Me solo tab

28 views 1 this week
no commentswrite comment
1 2 3 4 5
3 more votes to show rating
add to favorites
×
Save as Personal and add changes to this tab that will be seen only by you. Learn more ›
×
You can save this tab as Personal to edit and correct it or add notes. All changes will be seen only by you. Learn more »
launch autoscroll
font size
0
reset
how to read this tab
guitar tuner
edit
Autoscroll
slow
fast
+/-
esc
set tempo
stop
About this tab version
This is just the guitar solo. Was this info helpful? Yes No
"Somebody is Waiting For Me" - JULIANA HATFIELD
Guitar solo TAB by
Matty Jay, guitarist for Alyce Hart (www.alycehart.com)


[Solo]

e|-0-0-0-|-0-0-0-0-0-0--0-0-0-0-0-0---0-0-|-0-0-0-0--0--0--0-0--0-0-0-0--0-0--|
B|-5-5-5-|-4-4-5-5/9-9\-5-5-4-4-5-2---5-5-|-4-4-5-5/12-12\-9-9\-4-4-5-2--5-5--|
G|-------|--------------------------------|-----------------------------------|
D|-------|--------------------------------|-----------------------------------|
A|-------|--------------------------------|-----------------------------------|
E|-------|--------------------------------|-----------------------------------|

                                            *
e|-0-0-0-0--0-0--0-0---0-0-0-0---0--0---0-|--0------0--0----0------0--0-------|
B|-4-4-5-5/-9-9\-5-5---4-4-5-5/-12-12---9-|-12h14--12-12---12h14--12-12-------|
G|----------------------------------------|-13h14--13-13---13h14--13-13-------|
D|----------------------------------------|-----------------------------------|
A|----------------------------------------|-----------------------------------|
E|----------------------------------------|-----------------------------------|


e|--0------0--0----0--0----0--------|
B|-12h14--12-12---12-14---12---12\--|
G|-13h14--13-13---13-14---13---13\--|
D|----------------------------------|
A|----------------------------------|
E|----------------------------------|


*This part of the solo sounds like it might be 2 separate guitars, but this arrangement 
allows you to
 play the 2 parts together on one guitar.

            
            
Suggest correction
Creating personal tab
Creating personal tab
You can edit any tab online and save it as your Personal.

You can edit, replace or remove any tab part or add personal notes – all changes will be seen only by you.

Personal tabs can be accessed anytime from any device, even offline.
Learn more »
Give kudos to tab author, rate the tab!
1 2 3 4 5
comments
print report bad tab
guest
You may want to rate the tab now too:
select rating
Wanna post a correction for this tab? Suggest correction